Acordes de Guitarra » L »Luis Miguel » La Juventud (Tab)

La Juventud
Luis Miguel

Letras, Acordes y Tabs para Guitarra, Bajo y Ukulele

  •   G
    E------------------------------------------------------------
    A------------------------------------------------------------
    D------------------------------------------------------------
    G----12-9----------------------------------------------------
    B-12------12---12-13-12-13-12-13-12--------------------------
    e------------------------------------------------------------
        Em                                     Am       G
    E------------------------------------------------------------
    A------------------------------------------------------------
    D------------------------------------------------------------
    G-----------12-----------------------------9-------7---------
    B--12-13-12----12-13-12-13-12-13-12----------10-13---8-12----
    E------------------------------------------------------------
       D
    E------------------------------------------------------------
    A------------------------------------------------------------
    D------------------------------------------------------------
    G------------------------------------------------------------
    B------------------------------------------------------------
    
  • +
    ¡Colabora con nosotros!
    Envíanos tu versión de esta canción

Letra de La Juventud
ESTROFA 1
Que han sido tú, es el futuro de este mundo de horror
El encargado de ponerle color y una canción,
A este cuadro gris de la creación
ESTROFA 2
Que han sido tu ha de salvar al hombre que ha sido tu
Este planeta enfermo ya no da mas, tiende a morir
Tú lo salvaras, tú lo salvaras
Cantemos todos porque
La juventud viene marchando, y es una gran multitud
Que estas haciendo nada, tú lo cambiaras
Tu lo cambiaras tu lo cambiaras
Cantemos todos porque
La juventud, es un por siempre, es como un rayo de luz
Es la esperanza quieta, de la libertad
Tú lo cambiaras, tú lo cambiaras
ESTROFA 1
Que han sido tú, es el futuro de este mundo de horror
El encargado de ponerle color y una canción,
A este cuadro gris de la creación
ESTROFA 2
Que han sido tu ha de salvar al hombre que ha sido tu
Este planeta enfermo ya no da mas, tiende a morir
Tú lo salvaras, tú lo salvaras
Cantemos todos porque
La juventud viene marchando, y es una gran multitud
Que estas haciendo nada, tú lo cambiaras
Tu lo cambiaras tu lo cambiaras
Cantemos todos porque
La juventud, es un por siempre, es como un rayo de luz
Es la esperanza quieta, de la libertad
Tú lo cambiaras, tú lo cambiaras
Cantemos todos porque
La juventud viene marchando, y es una gran multitud
Que estas haciendo nada, la juventud, la juventud
Bueno eso fue mi transcripción y si tienen alguna duda
Mándenme un correo al chaquetaardiente@hotmail.com y porfa
Califíquenme bien va bye




[La Juventud chords][La Juventud cifra]
© LaCuerda.net · aviso legal · privacidad · es · en · pt · contacto
DINAMICO