Acordes de Guitarra » L »Luis Alberto Spinetta » Por (Tab)

Por
Luis Alberto Spinetta

Letras, Acordes y Tabs para Guitarra, Bajo y Ukulele

  • D              A/C#      Bm
     Árbol, oja, salto, luz,
         A         G
    aproximación,
                   F#m
    mueble, lana, gusto, pie,
     F   G  A    F G
    te, marcas, miradas
    D             A/C#      Bm
     Nube, loba, dedo, cal,
          A        G
    gesticulador,
                 F#m
    hijo, cama, menta, sien,
     F    G    A   F G      A
    rey, fin, sol, amigo, cruz.
    F#     F#/F   F#/E   Emaj7
    Alga, dado, cielo, riel,
    Riff1             [Riff2]x2
    estalactita, mirador, corazón.
    
  • D                    A/C# 
    Arbol, hoja, salto, luz,
    G/B        A 
    aproximación,
     G                    F#m
    mueble, lana, gusto, pie,
     F   G  A    F    G
    té, mar, gas, miradas
    D                  A/C#     
    Nube, loba, dedo, cal,
    G/B         A  
    gesticulador,
     G                    F#m
    hijo, cama, menta, sien,
     F    G    A   F G      A
    rey, fin, sol, amigo, cruz.
    Cadencia de F#      C7/+9
    Alga, dado, cielo, riel,
    Riff 1               ( Riff2 x2 )
    estalactita, mirador, corazón.
    
  •    D            A/C#         Bm           A
    e|-------2------------0-------------------------------|
    B|-----3---3--------3---3----------3------------2-----|
    G|---2-------2----2-------2------4---4--------2---2---|
    D|-0---------------------------4-------4----2-------2-|
    A|--------------4------------2------------0-----------|
    E|----------------------------------------------------|
        Arbol, oja, salto luz,          aproximación
    
      G           F#m           F     G     A     F     G
    e|------3-------------------1-----3-----5-----1-----3----------------|
    B|--------0---------2-------1-----3-----5-----1-----3-----0-0p1------|
    G|----0-----0-----2---2-----2-----4-----6-----2-----4--4---------2-0-|
    D|--0-----------4-------4---3-----5-----7-----3-----5--5-------------|
    A|--------------------------3-----5-----7-----3-----5--5-------------|
    E|3-----------2-------------1-----3-----5-----1-----3--3-------------|
          mueble lana gusto pie te     marcas      mi  ra das
    
       D            D/C#         Bm           A
    e|-2-----2------------0-------------------------------
    
  • Dmaj7  Amaj7/C#   Bm     A      G           F#m           F   G   A   F
    E--------------------------------------3------------3-------1---3---5---1-|
    B--------------5-------3-----------------3------------2-----1---3---5---1-|
    G------------6-------4--------6------4-----4------2-----2---2---4---6---2-|
    D--7-------7-------4--------7------5------------4-----------3---5---7---3-|
    A-5------4-------2--------7---------------------------------3---5---7---3-|
    E-----------------------5-------3-------------2-------------1---3---5---1-|
    
    
       G               Dmaj7  Amaj7/C#   Bm     A      G           F#m
    E--3----------------------------------------------------3------------3----|
    B--3----------------------------5-------3-----------------3------------2--|
    G--4--4-4*5*4-----------------6-------4--------6------4-----4------2-----2|
    D--5----------7-5----7-------7-------4--------7------5-----------4--------|
    A--5---------------5------4-------2--------7------------------------------|
    E--3-------------------------------------5-------3-------------2----------|
    
    
    
        F   G   A   F   G     A   F#maj7  F#maj7/F  Fmaj7/E
    
  • +
    ¡Colabora con nosotros!
    Envíanos tu versión de esta canción
  • Tutorial
    Como tocar Barro tal vez (tutorial)
    por Lisandro Flores
    11:04

Letra de Por
Árbol, oja, salto, luz,
aproximación,
mueble, lana, gusto, pie,
te, marcas, miradas
Nube, loba, dedo, cal,
gesticulador,
hijo, cama, menta, sien,
rey, fin, sol, amigo, cruz.
Alga, dado, cielo, riel,
Riff1 [Riff2]x2
estalactita, mirador, corazón.
Hombre, rayo, felpa, sed
Riff
extremidad, inslación, parecer.
Clavo, coito, Dios
temor, mujer, por.
Riff1
Riff2
La trancripción esta no es mía, es en realidad de mi profesor Lucio Mantel
al que le agradezco por todo lo que me enseñó. ^_^




[Por chords][Por cifra]
© LaCuerda.net · aviso legal · privacidad · es · en · pt · contacto