Acordes de Guitarra » L »Luis Alberto Spinetta » Me gusta ese tajo (Tab)

Me gusta ese tajo
Luis Alberto Spinetta

Letras, Acordes y Tabs para Guitarra, Bajo y Ukulele

  • ----4-----3-----2--------------------------
    -----------------------------------2-------
    --4---4/3---3/2----0/1-------------2-------
    -----------------------------------1-------
    -------------------------0^2-------2-------
    -------------------------------------------
    
    
    
     E5
    Me gusta ese tajo
    que ayer conocí
     A5
    Me gusta ese tajo
     E5
    que ayer conocí
     B5
    ella me calienta
     A5
    la quiero invitar a dormir.
    
  • B7/#9              E/G#
    E/------------  E/------------
    A/-----3------  A/------------
    D/---2--------  D/-------4-----
    G/--1---------  G/---2--------
    B/---2--------  B/------------
    E/ -----------  E/ ------4-----
    
    Nota: Los acordes[E] y [A] indican alternar entre los acordes E y E6 y A y A6.
    
    
    
    [E]
    Me gusta ese Tajo
    que ayer conocí
    [A]
    Me gusta ese Tajo
    [E]
    que ayer conocí
    B7/#9
    
  • Intro:
    se lo dedico a mi novia,soy nuevo y todavía no termine mis estudios
    en música.
    
    
      1------------|-----------|----------------|---------------------|
      2------------|-----------|----0-3---------|---------0-3---------|
      3------------|-----------|--3-----------0-|-------3-----------0-|
      4------------|-----------|----------------|---------------------|
      5--2--2--4--2|-2--2--4--2|---------2--4---|-2--4---------2--4---|
      6--0--0--0--0|-0--0--0--0|---------0--0---|-0--0---------0--0---|
    
    
    
    
      1------4---|--------4---4^^|------4--------------|
      2----------|---------------|--------0-3-----3-0--|
      3--4-------|--1/4----4-----|--1/4------4^^-------|
      4----------|---------------|---------------------|
      5----------|---------------|---------------------|
      6----------|---------------|---------------------|
    
    
    
    
      1------------|---------------|-----------------|
      2------------|---------------|-----------------|
      3--------3^--|---------2^-0--|--3^^-3^^-3^^-2--|
      4------------|-------
  • +
    ¡Colabora con nosotros!
    Envíanos tu versión de esta canción

Letra de Me gusta ese tajo
Me gusta ese tajo
que ayer conocí
Me gusta ese tajo
que ayer conocí
ella me calienta
la quiero invitar a dormir.
Con sus lindas piernas
ella me hace pensar
que puedo destruir la mierda
A5 empieza otra vez
que es mi gran ciudad.
Me gusta ese tajo...




[Me gusta ese tajo chords][Me gusta ese tajo cifra]
© LaCuerda.net · aviso legal · privacidad · es · en · pt · contacto