Acordes de Guitarra » L »Loquillo » el Rompeolas (Tab)

el Rompeolas
Loquillo

Letras, Acordes y Tabs para Guitarra, Bajo y Ukulele

  •               SOL            RE                       DO
                Lunes, martes, mi,rcoles mirando hacia el mar
                SOL           RE                  DO
                es un buen lugar para irse a olvidar.
                SOL          RE                  DO
                Coches, polic¡as detr s de la ciudad,
                SOL            RE                  DO
                ­Ojal  aquella rubia me mire al pasar!
    
                SOL             RE-FA             DO
                Chica puedes vivir, una vida de hogar
                SOL           RE-FA               DO-SIb
                buscate un marido, con miedo a volar.
                SOL            RE              FA
                No hables de futuro es una ilusi¢n
                                    DO                   SOL
                cuando el Rock and Roll conquist¢ mi coraz¢n. (BIS)
    
                  SOL              RE                     DO
                Jueves, viernes, s bado mirando hacia el mar
    
  • -------3---------------|---2------------------
    -------0---------------|---3------------------
    -------0---------------|---2---------0--------
    -------0--------0h2-0--|------0-0-2-----------
    -----------0h2p--------|---------------0-2-3--
    ----3------------------|----------------------
    
    
    |---0--0---0------------------------------
    |---1--1---1------------------------------
    |---0--0---0-----0h2-0-------------------
    |---2--2---2------------0h2-0------------
    |---3--3---3------------------0h2-0--------
    |--------------------------------------3--
    
    
    
    SOL            RE                       DO
    Lunes, martes, mi,rcoles mirando hacia el mar
    SOL           RE                  DO
    
  •       SOL                         RE
                ^                          ^
    E||---------3------------------|-------2-------------------|
    B||---------0------------------|-------3-------------------|
    G||*--------0------------------|-------2---------0---------|
    D||*------------------0--2--0--|--L-------0-0h2------------|
    A||---------------0h2----------|--------------------0h2-3--|
    E||---3--------3---------------|---------------------------|
    
      DO
           ^  v       ^
    -------0--0-------0-----|-------------------------||
    -------1--1-------1-----|-------------------------||
    -------0--0-------0---0h|--2--0------------------*||
    ------------------------|--------0h2---0---------*||
    --L----------3----------|----------------0h2--0---||
    ------------------------|-------------------------||
    
    SOL            RE                         DO
    Lunes, martes, miércoles mirando hacia el mar
    
  • ------
    
    E|----3-----------------2-----------------3---------------------|
    B|----3-----------------3-----------------3---------------------|
    G|----0-----------------2--------0--------0--0h2-0--------------|
    D|----0--------0-0h2-0-----0-0h2----------2--------0h2-0--------|
    A|----2--0-0h2---------------------0h2-3--3--------------0h2-0--|
    E|-3------------------------------------------------------------|
    
    
    Estrofa:
    --------
    G                 D
    Lunes, Martes, Miércoles,
              Cadd9
    mirando hacia el mar.
    G           D
    Es un buen lugar
               Cadd9
    para irse a olvidar,
    
  • +
    ¡Colabora con nosotros!
    Envíanos tu versión de esta canción

Letra de el Rompeolas
Lunes, martes, mi,rcoles mirando hacia el mar
es un buen lugar para irse a olvidar.
Coches, polic¡as detr s de la ciudad,
­Ojal aquella rubia me mire al pasar!
Chica puedes vivir, una vida de hogar
buscate un marido, con miedo a volar.
No hables de futuro es una ilusi¢n
cuando el Rock and Roll conquist¢ mi coraz¢n. (BIS)
Jueves, viernes, s bado mirando hacia el mar
es un buen lugar para irse a olvidar.
Deje a mi familia junto al televisor
en el rompeolas a£n se huele el sol.
Chica puedes vivir una vida de hogar
buscate un marido, con miedo a volar.
No hables de futuro es una ilusi¢n
cuando el Rock and Roll conquist¢ mi coraz¢n. (BIS)




[el Rompeolas chords][el Rompeolas cifra]
© LaCuerda.net · aviso legal · privacidad · es · en · pt · contacto