Acordes de Guitarra » L »Loquillo » El Ritmo del Garage (Tab)

El Ritmo del Garage
Loquillo

Letras, Notas, Punteos, Tablaturas y Acordes de Guitarra (Tabs & Chords)

  • Letra y Acordes
    G C G  C D  G C G  C G (x2 veces)
    
    G             C D                G
    Tu madre no lo dice, pero me mira mal.
    C               D                   G  (C G C G)
    ¿Quién es el chico tan raro con el que vas?
    G              C D                G
    Cuando yo estoy delante me trata muy normal
    C                D                G  (C G C G)
    y a solas te imagina un novio más formal.
    ESTRIBILLO
    C               D G                Em
    Cualquier noche los gatos de tu callejón x2
    C               G                D
    te maullarán a gritos esta canción
        Em            C               D G
    Porque yo tengo una banda de Rock_n Roll,
        Em            C               D
    Porque yo tengo una banda de Rock_n Roll.
    G C G  C D  G C G  C G (x2 veces)
    
  • Tablatura
       G5 C5 G5  C5    D5      G5 C5 G5   C5    G5
    e------------------------------------------------|
    B------------------------------------------------|
    G-----5------5-5---7-7-7-7-----5------5--5-------|
    D--5--5--5---5-5---7-7-7-7--5--5--5---5--5--5-5--|
    A--5--3--5---3-3---5-5-5-5--5--3--5---3--3--5-5--|
    E--3-----3------------------3-----3---------3-3--|x3
      \3/                      \3/
    
    saxo(arreglo guitarra) x2
    e--10~-12-10----------------|
    B------------12-10----------|
    G------------------12-9-12~-|
    D---------------------------|
    A---------------------------|
    E---------------------------|
    
    
    G5                C5
       Tu madre no lo dice no
    
  • +
    ¡Colabora con nosotros!
    Envíanos tu versión de esta canción

Letra de El Ritmo del Garage
Tu madre no lo dice, pero me mira mal.
¿Quién es el chico tan raro con el que vas?
Cuando yo estoy delante me trata muy normal
y a solas te imagina un novio más formal.
ESTRIBILLO
Cualquier noche los gatos de tu callejón x2
te maullarán a gritos esta canción
Porque yo tengo una banda de Rock_n Roll,
Porque yo tengo una banda de Rock_n Roll.
Tu padre no lo dice no, pero me mira mal.
¿Quién es el chico tan raro con la que vas?
Cuando yo estoy delante me trata muy normal
y a solas te imagina un novio más formal.
ESTRIBILLO
Cualquier noche los gatos de tu callejón....
ESTRIBILLO
Cualquier noche los gatos de tu callejón....
Porque yo tengo una banda de Rock_n Roll,
Porque yo tengo una banda de Rock_n Roll.



© LaCuerda.net · Aviso Legal · Privacidad