Acordes de Guitarra » L »Lisandro Aristimuño » Rocío (Tab)

Rocío
Lisandro Aristimuño

Letras, Acordes y Tabs para Guitarra, Bajo y Ukulele

  • |----------------------------------------------------|
    |----------------------------------------------------|
    |----------------------------------------------------|
    |------4-4-------------------------------------------|
    |-2-2------4-4-----------2/6-6--4-4---1-1--2---------|
    |----------------4-----------------------------------|
    
    Estrofas:
    |----------------------------------------------------|
    |----------------------------------------------------|
    |--4----8--6---3-4------4-3-1--------4---------------|
    |-----------------------------4-2-1------------------|
    |----------------------------------------------------|
    |----------------------------------------------------|
    
    
    |----------------------------------------------------|
    |----------------------------------------------------|
    |--4----8--9---3-4------4-3-1------------------------|
    |-----------------------------4-2-1------------------|
    
  • +
    ¡Colabora con nosotros!
    Envíanos tu versión de esta canción

Letra de Rocío
Estrofas:
De tu cuerpo cae, agua que moja el dia
Y no dejare que nuestros dias sequen
Uoho Oh Oh
De tus ojos caen, gotas de agua tibia
Y no dejare, que mi cancion se enfrie
Uoho Oh Oh
Se quedara en tu danzar
Todo el amor
De mis mañanas
Arreglo:
Termina en Si.
Disfruten otro temazo... genial.
joanemmanuel@hotmail.com




[Rocío chords][Rocío cifra]
© LaCuerda.net · aviso legal · privacidad · es · en · pt · contacto
DINAMICO