Tablatura para Bajo de Líbido: Tan Suave
Conexión · Inscripción
Letras y Acordes
Pantalla Completa
Imprimir
Versión Texto
Añadir Favorito
Otras Versiones

Mostrar Diagramas
Desfile Automático
Formato del Texto


Tan Suave(BAJ)

Líbido

calidad:
libi0692
AUTOR: Manolo Hidalgo
ALBUM: Rarezas (2010)
Enviado por KEVINK
Intro

Inicia en la parte donde Salim dice:
Despertar en tu piel......

G-------------------------------
D-------------------10----------
A---10¬-----12------------------
E--------------------------8----

G-------------------------------
D-------------------------------
A---10¬-----12-------------12---
E--------------------8----------

Acá entra el bajo junto al riff de guitarra

G--------------------------------------------------
D--------------------------------------------------
A-----¬-77777777--55555555-------------------------
E---00----------------------555555555555555555-----

G---------------------------------------------------------
D--------------------------------/7777--------------------
A-----¬-77777777--55555555--------------------------------
E---------------------------5555--------555555555---------

G--------------------------------------------------
D--------------------------------------------------
A-----¬-77777777--55555555-------------------------
E---------------------------555555555555555555-----

G------------------------------------------------
D--------------------------------/777777777------
A-----¬-77777777--55555555-----------------------
E---------------------------5555-----------------

Despertar en tu piel.......

G------------------------------------------------
D------------------------------------------------
A---101010101010101010--¬---------888888888------
E----------------------555555555-----------------

G------------------------------------------------
D------------------------------------------------
A---3333333333--------------------¬--------------
E--------------3333333333-5555555555-------------

G------------------------------------------------
D---3333333333--5/7777777777-5/7777777777--------
A---------------------------------¬--------------
E------------------------------------------------

Vuelve a entrar el Riff de guitarra

G---------------------------------------------------
D-------------------------------------5/7777777777--
A---7777777----55555555-----------------------------
E-------------------------55555555------------------

G---------------------------------------------------
D-------------------------------------5/7777777777--
A---7777777----55555555-----------------------------
E-------------------------55555555------------------

G--------------------------------------------------
D--------------------------------------------------
A-----¬-77777777--55555555-------------------------
E---------------------------555555555555555555-----

G--------------------------------------------------
D--------------------------------------------------
A-----¬-77777777--55555555-------------------------
E---------------------------5---------------------- Dejar sonando la nota.

Después que se detiene la canción

Outro

G-------------------------------------12-----12-----12---------------
D-----------------------------------14-----14-----14-----------------
A---777777777--5555555555--121212-12-----12-----12---------------¬---
E--------------------------------------------------------------------

G--------------------------------------------------------------------
D--------------------------------------------------------------------
A---777777777--5555555555----------------------------¬---------------
E---------------------------5----------------------------------------


By: Kevin Alfaro
Este fichero es trabajo propio de su transcriptor y representa su interpretación personal de la canción. El material contenido en esta página es
para exclusivo uso privado, por lo que se prohibe su reproducción o retransmisión, así como su uso para fines comerciales.

© LaCuerda.net · Aviso Legal · Privacidad