Acordes de Guitarra » L »Liberación » Ese loco soy yo (Tab)

Ese loco soy yo
Liberación

  • Letra y Acordes
       D                      F#m
    1)Ese que te llama a las tres de la mañana
           G           A      D
    y te pone una canción, romántica
     G           A           F#m          Bm
    ese que te deja en la libreta una tarjeta
           Em  A7        D
    donde dice,  que te ama.
     D                        F#m
    Ese que te entrega el corazón con la mirada
       G    A        D
    y tú, como sin nada
     G          A             F#m
    ese que sueña que una canción 
               Bm           Em    A7
    puede ablandarte el corazón
     D
    soy yo.
    
    CORO:
    
  • Letra y Acordes
    G                         Em
    ESE QUE TE LLAMA, A LAS TRES DE LA MAÑANA
           C           D     G      Em
    Y TE PONE UNA CANCION ROMANTICA
    C           D             G           Em
    ESE QUE TE DEJA EN LA LIBRETA UNA TARJETA,
           C          D
    DONDE DICE QUE TE AMA.
    G                          Em
    ESE QUE TE ENTREGA EL CORAZON CON LA MIRADA,
       C  D       G     Em
    Y TU COMO SI NADA,
    C           D             Em
    ESE QUE SUEÑA QUE NA CANCION
                             C Cmaj7   D
    PUEDE ARRANCARTE EL CORAZON, SOLO YO
    
                  G
    ESE LOCO SOY YO,
             C                          G        C
    
  • Tablatura
    G                         Em
    ESE QUE TE LLAMA, A LAS TRES DE LA MAÑANA
           C           D     G      Em
    Y TE PONE UNA CANCION ROMANTICA
    C           D             G           Em
    ESE QUE TE DEJA EN LA LIBRETA UNA TARJETA,
           C          D
    DONDE DICE QUE TE AMA.
    G                          Em
    ESE QUE TE ENTREGA EL CORAZON CON LA MIRADA,
       C  D       G     Em
    Y TU COMO SI NADA,
    C           D             Em
    ESE QUE SUEÑA QUE NA CANCION
                             C    D
    PUEDE ARRANCARTE EL CORAZON, SOLO YO
    
                  G
    ESE LOCO SOY YO,
             C                          G        C
    
  • Tab p/Bajo
    Es para un bajo de 5 cuerdas
    pero aca esta para las de 4
    porque creen??
    porque tengo solo  una de 4 ps
    Intro
    E|--3-------|
    A|-----7/3--|
    D|----------| X5
    G|----------|
    
    Ese que te llama
    E|--3-|-2-0-|---|---|-3-|-3---3-5----|
    A|----|-----|-3-|-5-|---|---------2--|
    D|----|-----|---|---|---|---5--------|
    G|----|-----|---|---|---|------------|
    
    Ese que te deja
    E|----|---|-3-|---|---|---|----|
    A|--3-|-5-|---|---|-3-|-0-|-5--|
    D|----|---|---|-2-|---|---|----|
    G|----|---|---|---|---|---|----|
    
    E|---------|
    A|--5-7----|
    D|------4--|
    G|---------|
    
    Ese que te entrega
    E|--3-33-|-2-0-00-|-0---|-----|---3-|-3---3-5----|
    A|-------|--------|---3-|-3-5-|-5---|---------2--|
    D|-------|--------|-----|-----|-----|---5--------|
    G|-------|--------|-----|-----|-----|------------|
    
    Ese que sueña
    E|----|-----|-----|-----|-----|-----|----|
    A|--3-|-3-5-|-5-7-|-7---|-5-3-|-3-0-|-5--|
    D|----|-----|-----|-----|-----|-----|----|
    G|----|-----|-----|---9-|-----|-----|----|
    
    E|----------5--|
    A|------3-2----|
    D|--7----
  • +
    ¡Colabora con nosotros!
    Envíanos tu versión de esta canción
  • Tutorial
    Ese Loco Soy Yo (Liberación)
    5:12
  • Tutorial
    ESE LOCO SOY YO (INTRO)
    1:53

Letra de Ese loco soy yo
1)Ese que te llama a las tres de la mañana
y te pone una canción, romántica
ese que te deja en la libreta una tarjeta
donde dice, que te ama.
Ese que te entrega el corazón con la mirada
y tú, como sin nada
ese que sueña que una canción
puede ablandarte el corazón
soy yo.
Ese loco soy yo
porque nadie como tú me había flechado así
me había pegado aquí, directo al corazón
sólo tú, sólo tú amor,
sólo tú, sólo tú amor.
Y nadie te amará como te amo yo
con este loco amor ya nadie te amará
sólo yo, sólo yo amor.
sólo yo, sólo yo amor.
2)Ese que se muere por estar entre tus brazos
ese loco que sigue tus pasos
ese que te entrega lo mejor
para que tú le des tu amor
soy yo.
(SE REPITE EL CORO)
Si alguien tiene alguna corrección favor de comunicármelo



© LaCuerda.net · aviso legal · privacidad · contacto