Acordes de Guitarra » L »León Gieco » Ruta del coya (Tab)

Ruta del coya
León Gieco

Letras, Acordes y Tabs para Guitarra, Bajo y Ukulele

  • e|---2---------------------------------------3-----| \
    B|-----3---2/3-0---0---3-2---2---2-3---0---0---0---| | Riff base de
    G|-------2-2-----0---0-2-2-2---2---2-2-0-0-------0-| | todo el tema
    D|-0-------------------0---------------------------| | se repite  8
    A|---------------------2-0-------------------------| | veces por verso
    E|---------2---3-------------------2---3-----------| /
       D           G         A             G
    Mientras se realiza este riff una guitarra melódica toca
    D  G  A  G  como se marca en la tablatura
    
    Dios sol, Dios agua
    que cae del cielo gris al alma
    Viento que arrastra voces que no se quieren ir
    Río que se llevó sangre, barro y paja por sueños
    
    Dios sal, Dios lágrimas
    Un horizonte en cruz en Jama
    Allá bien alto, donde el metal no alcanza,
    crecen tus alas, nieve quieta y naciente el alba
    
    
  • e|---2-----------------------3-|
    B|-----3---2-3-0-0-3-2-2-3-0-0-|
    G|-------2-2-2-0-0-2-2-2-2-0-0-|
    D|-0-----------------2-----0-0-|
    A|-----------------2-0-------2-|
    E|---------2---3-------2---3-3-|
    
    si no sale esta segidilla usar los acordes:
    D  D/F#  G  Bm7  A  D/F#  G
    
    Dios sol, Dios agua
    que cae del cielo gris al alma
    Viento que arrastra voces que no se quieren ir
    Río que se llevó sangre, barro y paja por sueños
    
    Dios sal, Dios lágrimas
    Un horizonte en cruz en Jama
    Allá bien alto, donde el metal no alcanza,
    crecen tus alas, nieve quieta y naciente el alba
    
    
  • +
    ¡Colabora con nosotros!
    Envíanos tu versión de esta canción

Letra de Ruta del coya
si no sale esta segidilla usar los acordes:
Dios sol, Dios agua
que cae del cielo gris al alma
Viento que arrastra voces que no se quieren ir
Río que se llevó sangre, barro y paja por sueños
Dios sal, Dios lágrimas
Un horizonte en cruz en Jama
Allá bien alto, donde el metal no alcanza,
crecen tus alas, nieve quieta y naciente el alba
Dios luz, Dios luna
Un campo de estrellas, altura...
Rosa de estos vientos en América inmolada
Ruta del coya, rabia de siglos en marcha
Dios paz, Dios guerra
Le dan sepultura en tierra
Van reclamándole una primavera por nacer
Muerte y salvación por el camino del ángel
Dios da, Dios quita
Le cuesta ver donde está la herida
Nunca hubo un lugar donde se le pueda preguntar




[Ruta del coya chords][Ruta del coya cifra]
© LaCuerda.net · aviso legal · privacidad · es · en · pt · contacto
DINAMICO