Acordes de Guitarra » L »León Gieco » solo le pido a dios (Tab)

solo le pido a dios
León Gieco

Letras, Notas, Punteos, Tablaturas y Acordes de Guitarra (Tabs & Chords)

  • Letra y Acordes
    C9
    1ra *-3
    2da *-3
    3ra *-x
    4ta *-2
    5ta *-3
    6ta *-x
    
    G       C9     G
    Sólo le pido a Dios
    C                  Bm          Am
    Que el dolor no me sea indiferente
    Bm              G                D
    Que la reseca muerte no me encuentre
            Am            D             Em
    Vacío y solo sin haber hecho lo suficiente.
    
    
    Sólo le pido a Dios
    Que lo injusto no me sea indiferente
    
  • Letra y Acordes
    e|------------------------------------||
    B|------------------------------------||
    G|------------------------------------||
    D|------0-2-----------0-2-------------||
    A|--0-2-----------0-2-----------------||
    E|----------0-0-0---------0-0-0--0-2--|| riff
    
    
    G        D        G
    Solo le pido a Dios,
    C                  Bm           Am
    Que el dolor no me sea indiferente,
    Bm           G                D
    Que la reseca muerte no me encuentre,
            C              Bm          Em
    Vacio y solo sin haber hecho lo suficiente.
    
    riff
    
    Solo le pido a Dios
    
  • Letra y Acordes
    G       C/G      G
    Sólo le pido a Dios
    C                  G/B       Am
    que el dolor no me sea indiferente
    Bm              G              D/F#
    que la reseca muerte no me encuentre
            C/G            Bm             Em    VI(0-2-3)
    vacío y solo sin haber hecho lo suficiente.
    
    
    Sólo le pido a Dios
    que lo injusto no me sea indiferente
    que no me abofeteen la otra mejilla
    después de que una garra me arañó esta suerte.
    
    
    Sólo le pido a Dios
    que la guerra no me sea indiferente
    //:es un monstruo grande y pisa fuerte
    toda la pobre inocencia de la gente//:bis
    
  • Letra y Acordes
    Cadd9
    ----3----
    ----3----
    ---------
    --2------
    ----3----
    ---------
    
    G       Cadd9        G
    Solo le pido a Dios,
    C                  Bm           Am
    Que el dolor no me sea indiferente,
    Bm           G                D
    Que la reseca muerte no me encuentre,
            C              Bm          Em
    Vacio y solo sin haber hecho lo suficiente.
    
    riff
    
    Solo le pido a Dios
    
  • Tablatura
    --1-0-1-3-5-3-1-0----|
    ------------------2--|
    ---------------------|
    ---------------------|
    ---------------------|
    ---------------------|
    
    1|--0-0-0-3-0-3-0-3-5-3--------|
    2|----------------------3-2-3--|
    3|-----------------------------|
    4|-----------------------------|
    5|-----------------------------|
    6|-----------------------------|
    
    1|------0-1-1-1-1-1-0-0-0-0---0----|
    2|--3-3---------------------3------|
    3|------------------------------2--|
    4|---------------------------------|
    5|---------------------------------|
    6|---------------------------------|
    
  • Tablatura
                   Em              Em            D            Em   G
    e-|------------0---------------0-------------2------------0--------
    B-|------------0---------------0-------------3------------0--------
    G-|------------0---------------0-------------2------------0--------
    D-|-----0h2-2--2------0h2-2s5--2------0h2-0--0------0h2-2-2--------
    A-|-0h2--------2--0h2----------2--0h2-----------0h2-------2--------
    E-|------------0---------------0--------------------------0--0-2-3-
    
    
    
    (Con cejilla en el 2º traste)
    
    e |------------2-------------------2-------------4-------------2---------|
    B |------------2-------------------2-------------5-------------2---------|
    G |------------2-------------------2-------------4-------------2---------|
    D |-----2h4-4--4-----2h4-4s7-4-2---4------2h4-2--2------2h4-4--4-4-6-7-7-|
    A |-2h4--------4--2h4--------------4--2h4-----------2h4--------4-5-7-9-9-|
    E |------------2-------------------2---------------------------2---------|
    
    
    
  • Tablatura
       F#m
    e|-2-----------x------------2-----2--------------------------------------|>
    B|-2---------2-x------------2---2-2-------------------0-2-5/7-5--2h0-----|>
    G|-2---------2-x----------------2-2-x--------------------------------2h1-|>
    D|-4--4-x--4-4-x-x-----2--4---4-4-4-x-----2-4/7--2-4---------------------|>
    A|-4--4-x--4-4-x-x-2-4--------4-4-4-x-2-4--------------------------------|>
    E|-2--2-x--2-2----------------2-2---x------------------------------------|>
    
    e|----------------------------------------------------------x------------|>
    B|----------------------------------------------2---------2-x------------|>
    G|-0-2-4-6-6------------------------------------2---------2-x------------|>
    D|-2-4-6-7-7--4-6-7-7-------------------------4-4--4-x--4-4-x-x-----2--4-|>
    A|-0----------5-7-9-9--0-2-4-4-2p4h2h0----2/4---4--4-x--4-4-x-x-2-4------|>
    E|---------------------2-4-5-5---------2--------2--2-x--2-2--------------|>
    
    e|-2------------5h4h2---2-7-7--9--9-12-12-11-11--9--9--5h4h2-------------|>
    B|-2--------2---------2---9-9-10-10-14-14-12-12-10-10--------2-----------|>
    G|-2--------2--------------------------------------------------6h4-------|>
    D|-4--4-x-4-4-4----------------------------------------------------7-6-4-|>
    A|-4--4-x-4-4------------------------------------------------------------|>
    
  • Armónica
    Las siguientes notas corresponden al punteo:
    
    5 5 5 (4)(4) 4
    (6)(6)(6)(6)(6) 6 6 6 6 6 (5)
    5 5 5 6 5 6 5 6 5 6 (4)
    (4)(4) 5 (5)(5)(5)(5)(5) 5 5 5 5 (4) 5 5
    
    Las siguientes notas corresponden al solo 
    que aparece en la mitad y en el final de la cancion:
    
    6 (5) 5 4
    (6)(6) 6 (6) 6 (5) 5 (4)
    (6)(7) 7 (6) 6 6 5 5 5 5 (5) 5 (4) 4  
    (6)(7) 7 (6) 6 6 5 5 5 5 (5) 5 (4) 4  
    
    Cualquier duda, comentario o correccion, o cualquier fanatico de Leon
    escríbanme a: mati_mt@hotmail.com
  • +
    ¡Colabora con nosotros!
    Envíanos tu versión de esta canción
  • Tutorial
    HD
    Como tocar Solo le pido a dios Leon Gieco
    0:12

Letra de solo le pido a dios
1ra *-3
2da *-3
3ra *-x
4ta *-2
5ta *-3
6ta *-x
Sólo le pido a Dios
Que el dolor no me sea indiferente
Que la reseca muerte no me encuentre
Vacío y solo sin haber hecho lo suficiente.
Sólo le pido a Dios
Que lo injusto no me sea indiferente
Que no me abofeteen la otra mejilla
Después de que una garra me arañó esta suerte.
Sólo le pido a Dios
Que la guerra no me sea indiferente
Es un monstruo grande y pisa fuerte
Toda la pobre inocencia de la gente
Sólo le pido a Dios
Que el engaño no me sea indiferente
Si un traidor puede más que unos cuantos
Que esos cuantos no lo olviden fácilmente
Sólo le pido a Dios
Que el futuro no me sea indiferente
Desahuciado está el que tiene que marcharse
A vivir una cultura diferente.
Sólo le pido a Dios
Que la guerra no me sea indiferente
Es un monstruo grande y pisa fuerte
Toda la pobre inocencia de la gente
Se utiliza los mismos acordes cada verso



© LaCuerda.net · Aviso Legal · Privacidad