Acordes de Guitarra » L »León Gieco » En el país de la Libertad (Tab)

En el país de la Libertad
León Gieco

  • Letra y Acordes
    G C G C G
    
     C                             G
    Búsquenme donde se esconde el sol
     C                    G
    donde exista una canción
     C                       G
    Búsquenme a orillas del mar
     C          Cm/Eb       G
    besando la espuma y la sal
    
     C        G  C          G       
    Búsquenme,  me encontrarán
     C         G        C        G
    en el país,  de la libertad
     C        G  C          G
    Búsquenme,  me encontrarán
     C         G        Cmaj7                 G/B  Gm/Bb  G(sin3)/A  G  D
    en el país,  de la libertad, de la libertad, uuhhh...
    
    
  • Letra y Acordes
      intro:[DO9 SOL] x4
    
     DO9                       SOL
    Búsquenme donde se esconde el sol,
     DO9                SOL
    donde exista una canción.
      DO9                  SOL
    Búsquenme a orillas del mar
    MIm         MIm7       MIm7
    besando la espuma y la sal.
     DO9  SOL  DO9       SOL
    Búsquenme, me encontrarán
    DO9    SOL          DO9    SOL
    en el país de la libertad.
     DO9  SOL  DO9       SOL
    Búsquenme, me encontrarán
    DO9    SOL          DO9    SOL
    en el país de la libertad,
                SOL/SI [Solm/Sib LAm7]
    de la libertad.
    
  • Tablatura
                 G                           G
    e|-3-----------------------|-|-3------------------------|-|
    B|--------------------0----|-|--------------------0-----|-|
    G|------------0------------|X|------------0-------------|X|
    D|---(0)--------(0)-----(0)|1|---(0)--------(0)-----(0)-|2|
    A|-2----------------2------|-|-2-----2------------------|-|
    E|-------3-----------------|-|------------------3-------|-|
               C/G                           G
    e|-0-----------------------|-|-3-----------------------|-|
    B|--------------------1----|-|--------------------0----|-|
    G|-----------0-------------|X|------------0------------|X|
    D|---(2)-------(2)------(2)|2|---(0)--------(0)-----(0)|3|
    A|-3-----3---------3-------|-|-2-----2-----------------|-|
    E|-------------------------|-|------------------3------|-|
              C/G               |            G
    e|-0----------------------------3------------------------|
    B|--------------------1----------------------------3-----|
    G|-----------0-----------------------------0-------------|X
    D|---(2)-------(2)------(2)-------(0)--------(0)-----(0)-|2
    A|-3-----3---------3------------2-----2------------------|
    
  • Armónica
    G C                    G                  C
      3--> 6(larga) --> 4 (4)(larga) 5 (4) 4 (3) (3) 3
       G           C     G
    3 (4) 3 (4) 3 (4) 3 (4) 3(larga)
    
     C                             G
    Búsquenme donde se esconde el sol
     C                    G
    donde exista una canción
     C                       G
    Búsquenme a orillas del mar
     C          Cm/Eb       G 
    besando la espuma y la sal
    
    (G-A-B) C        G  C          G       
           Búsquenme,  me encontrarán
     C         G        C        G
    en el país,  de la libertad
     C        G  C          G
    Búsquenme,  me encontrarán
     C         G        Cmaj7   
    en el país,  de la libertad,
                 G/B  Gm/Bb  G(sin3)/A  G  D
    de la libertad, uuhhh...
    
    Búsquenme donde se detiene el viento
    donde haya paz y no exista el tiempo
    Donde el sol seca las lagromas
    de las nubes en las mañanas.
    
    Búsquenme, me encontrarán
    en el país, de la libertad
    Búsquenme, me encontrarán
    en el país, de la libertad.
    Búsquenme, me enc
  • +
    ¡Colabora con nosotros!
    Envíanos tu versión de esta canción

Letra de En el país de la Libertad
Búsquenme donde se esconde el sol
donde exista una canción
Búsquenme a orillas del mar
besando la espuma y la sal
Búsquenme, me encontrarán
en el país, de la libertad
Búsquenme, me encontrarán
en el país, de la libertad, de la libertad, uuhhh...
Búsquenme donde se detiene el viento
donde haya paz y no exista el tiempo
Donde el sol seca las lagromas
de las nubes en las mañanas.
Búsquenme, me encontrarán
en el país, de la libertad
Búsquenme, me encontrarán
en el país, de la libertad.
Búsquenme, me encontrarán
en el país, de la libertad
Búsquenme, me encontrarán
en el país, de la libertad, de la libertad, uuhhh...



© LaCuerda.net · aviso legal · privacidad · contacto