Acordes de Guitarra » L »León Bruno » El tatuaje de la redención (Tab)

El tatuaje de la redención
León Bruno

  • Tablatura
    ACORDES: Am  F  G    E
    
    
    Intro:
         Am        DO         G            Am         DO               G
    
    E----------|-------|--------0-----|-----------|---------|---------0------
    A-----3---3|----3--|----3------3--|-----3---3-|-----3---|-----3------3---
    D---2--2---|--2---2|------0--0----|---2--2----|---2---2-|-------0--0-----
    G-------2--|-------|--0---------0-|-------2---|---------|---0----------0-
    B-0--------|3------|--------------|0----------|3--------|----------------
    e----------|-------|3-------------|-----------|---------|-3--------------
    
        Am       DO           G              Am        DO          G
    
    E----------|-------|--------0-----|-----------|---------|---------0------
    A-----3---3|----3--|----3------3--|-----3---3-|-----3---|-----3------3---
    D---2--2---|--2---2|------0--0----|---2--2----|---2---2-|-------0--0-----
    G-------2--|-------|--0---------0-|-------2---|---------|---0----------0-
    B-0--------|3------|--------------|0----------|3--------|----------------
    
  • Tablatura
    e-------------|---------|-----------------------|
    B-------------|---------|-----------------------|
    G-----4-------|-----4---|-------6---8-----6-----|
    D-------6---6-|---6---6-|-----8---8---8-----8---|
    A---6-----6---|-7-------|-7s9-----------9-----9-|
    E-4-----------|---------|-----------------------|
    
    
    riff1:
    e-------------|---------|-----------------------|
    B-------------|---------|-----------------------|
    G---4-5-------|-----4---|-------6---8-----6-----|
    D-------6---6-|---6---6-|-----8---8---8-----8---|
    A---------6---|-7-------|-7s9-----------9-----9-|
    E-4-----------|---------|-----------------------|
    
    riff2:
    e-----------------------------------------------|
    B-----------------------------------------------|
    G-1-1---1-----------0-0-0---0-------------------|
    
  • Tablatura
    e-------------|---------|-----------------------|
    B-------------|---------|-----------------------|
    G-----4-------|-----4---|-------6---8-----6-----|
    D---6---6---6-|---6---6-|-----8---8---8-----8---|
    A---------6---|-7-------|-7s9-----------9-----9-|
    E-4-----------|---------|-----------------------|
    
    
    e-------------|---------|-----------------------|
    B-------------|---------|-----------------------|
    G---4---------|-----4---|-------6---8-----6-----|
    D-----8-6---6-|---6---6-|-----8---8---8-----8---|
    A---------6---|-7-------|-7s9-----------9-----9-|
    E-4-----------|---------|-----------------------|
    
    riff2:
    e|---------|----------|----------|----------------|
    B|---------|----------|----------|----------------|
    G|---------|----------|----------|----------------|
    D|-2-2---2-|4-4-4---4-|1-1-1---1-|6-6-6-6-4-4-4-4-|
    
  • +
    ¡Colabora con nosotros!
    Envíanos tu versión de esta canción

Letra de El tatuaje de la redención
En aquellos días era imposible conciliar el sueño Ella allí sentada
esplendida entre calinas
Sus puntiagudos senos casi que podía acariciarlos hablamos de cosas y
nos preparamos para fornicar
Y me invito a su alcoba y poso mi mano entre sus piernas
Sentí que temblaba Y nunca más deje de verla
Deslice mano en la abertura de su bata,
Y mis dedos se impregnaron con su tinta de quimeras
Aun sin que ella reaccionara seguiré avanzando
Y cuando roce la cima de su alma Ella suspiro ahh ahh…
Ya en la copular, de una buena vez
Todo ha funcionado para aspirar su ser
A punto de fallar a punto de volver
Se que me importas se que quien era quien fui
Este es el tatuaje de la redención
En donde convergen como rayos
Los mensajes a tu corazón… a tu corazón
De espaldas hacia mí levitando al desnudo
Poco a poco poseí las bermudas en lo oscuro
De nuevo el intro punteado:
Visitaba el cielo por la propulsión de mis arterias
Manejaba el trono mientras la insultaba entre sus quejas,
Y la sentí agotada imperturbable
Me puse de rodillas la vi desmallada y desaparecí
Laiaiaaa la vi desmallada y desaparecí
Laiaiaaa la vi desmallada y me fui



© LaCuerda.net · aviso legal · privacidad · contacto