Acordes de Guitarra » K »Kumbia Kings » Fuiste Mala (Tab)

Fuiste Mala
Kumbia Kings

Letras, Acordes y Tabs para Guitarra, Bajo y Ukulele

  • Intro: Cm, Fm, Bb7, D#, G#, G
    
    Cm 
    Que yo vuelvo a recibirte
                       Fm
    Y otra vez a pedir
    
    Ya has vivido atormentanda
                         Bb7
    Por no estar junto a mi
               D#
    Porque me quires
                G#  G
    Pues que me crees
    
    Cm
    Que eso borre el pasado
                       Fm
    Como si nunca paso
    
    
  • Bm
    Que yo vuelvo a recibirte
                  Em
    Y otra vez a pedir
    
    Ya has vivido atormentanda
                     A/A7
    Por no estar junto a mi
               D
    Porque me quires
                  G
    Pues que me crees
    
    Bm
    Que eso borre el pasado
                   Em
    Como si nunca paso
    
    Y que te libre de tus penas
                    A/A7
    
  • E-------------------------------------------------------
    A-------------------------------------------------------
    D-------------------------------------------------------
    G-------------------------------------------------------
    B------------13-13---------------11-12------------------
    e-11-11-10-10-----10-11-15-13-16-------10-13-11-13-16-15
    
    
    INTRO 2  teclado, acordeón
    
    Cm   Fm     Bb7   D#   G#    G
    
    
    E-------------------------------------------------------
    A-------------------------------------------------------
    D-------------------------------------------------------
    G-------------------------------------------------------
    B--------------13-13-13-----------------------11-11-13--
    e--11-11-10-10----------10-11-15-13-13-15-16------------
    
    
  • +
    ¡Colabora con nosotros!
    Envíanos tu versión de esta canción

Letra de Fuiste Mala
Que yo vuelvo a recibirte
Y otra vez a pedir
Ya has vivido atormentanda
Por no estar junto a mi
Porque me quires
Pues que me crees
Que eso borre el pasado
Como si nunca paso
Y que te libre de tus penas
Que te de mi perdon
Porque te quiero
Lo siento pero estas en un error
Es que fuiste mala con mi corazon
Y ahora vienes a buscarme, amarme
Un dia fuiste todo para mi
Y ahora no puedo ni verte, vete
Que me acerce a tus labios
Que han besado muchos mas
Y que me entrege a tus brazos
Que todo vuelva a ser igual
Porque me amas
Escuchame que nunca jamas
Es que fuiste mala con mi corazon....




[Fuiste Mala chords][Fuiste Mala cifra]
© LaCuerda.net · aviso legal · privacidad · es · en · pt · contacto
DINAMICO