Acordes de Guitarra » K »Kraken » Rompiendo el hechizo (Tab)

Rompiendo el hechizo
Kraken

Letras, Acordes y Tabs para Guitarra, Bajo y Ukulele

  • Saludos a todos los fans de Kraken, para los que son tan
    fieles seguidores como yo del grupo, se que les va encantar
    esta canción.
    
    INTRO TECLADO:
    e|----------|----------|
    B|----------|----------|
    G|---9------|---9------|
    D|-------11-|-------11-|
    A|-9---9----|-9---9----|
    E|----------|----------|
    
    ENTRADA DE GUITARRA: (Esto también lo hace mientras se canta)
    e|---------------------------|
    B|---------------------------|
    G|/-11-11-11--11-11-11-11-11-|
    D|---------------------------|
    A|---------------------------|
    E|---------------------------|
    
    En el último eslabón… (Esta parte la hace el piano)
    e|-------------------------|-------------------------|
    B|-------2-----2-----2-----|-------------------------|
    G|-----2---2-----2-----2---|-------2-----2-----2-----|
    D|---4-------2-----2-----2-|-----4---4-----4-----4---|
    A|-------------------------|---4-------4-----4-----4-|
    E|-2-----------------------|-2-----------------------|
    
    e|-------------------------|-------------------------|
    B|--------
  • +
    ¡Colabora con nosotros!
    Envíanos tu versión de esta canción






[Rompiendo el hechizo chords][Rompiendo el hechizo cifra]
© LaCuerda.net · aviso legal · privacidad · es · en · pt · contacto
DINAMICO