Acordes de Guitarra » K »Kaotiko » Otra Noche (Tab)

Otra Noche
Kaotiko

Letras, Acordes y Tabs para Guitarra, Bajo y Ukulele

  •   RE#  LA#  DO  SOL#
    |---------------------|
    |---------------------|
    |--8---------5--------|
    |--8----8----5----6---|
    |--6----8----3----6---|
    |-------6---------4---|
    
    Intro: RE# LA# DO SOL#
    
    Verso (con palm mute):
    ----------------------
    
    RE#                   LA#                       DO
    Otra noche para el bar, hemos salido a ver ké pasa
              SOL#
    una vez más, nos vamos a drogar
    RE#                   LA#                       DO
    Va subiendo el calentón y se van yendo mis problemas
              SOL#
    
  •       RE#5       LA#5         DO         SOL#5
    e|--------------------------------------------------
    B|--------------------------------------------------
    G|----8------8----------------5------5--------------
    D|----8----8---8--8------8----5----5---5--6------6--
    A|----6--6--------8----8---8--3--3--------6----6---6
    E|----------------6--6--------------------4--4------
    
       RE#5       LA#5         DO         SOL#5
    --------------------------------------------
    --------------------------------------------
    ----8------8----------------5------5--------
    ----8----8---8--8------8----5----5---5--6---
    ----6--6--------8----8---8--3--3--------6---
    ----------------6--6--------------------4---
    
    
    Solo del minuto 2:08
    
    e|-----------------------------------------------------
    
  • Hola bola vrayola
    jajjjajjaja
    ps...
    le dejo esta rola de un buen grupo como
    lo es kaotico
    esperando que les guste
    califiquenla chido carnales
    la neta no se si esta bn
    lo unico que falla es el tiempo
    tareten de darselo rapido
    y si faltan mas vaces los acordes
    ps.... aganlos
    jajajaja!!!!!!!!!
    
    Intro (0:23)
    G||--------------------------|--------------------------|
    D||--------------------------|--------------------------|
    A||--6--6--6--6--6--6--6--6--|--------------------------|
    E||--------------------------|--6--6--6--6--6--6--6--6--|
                                                                x2
    G||--------------------------|--------------------------|
    D||--------------------------|--------------------------|
    A||--3--3--3--3--3--3--3--3--|--------------------------|
    E||--------------------------|--4--4--4--4--4--4--4--4--|
    
    verso (0:40)
    G||--------------------------|--------------------------|
    D||--------------------------|--------------------------|
    A||--6--6--6--6--6--6--6--6--|-------
  • +
    ¡Colabora con nosotros!
    Envíanos tu versión de esta canción

Letra de Otra Noche
Verso (con palm mute):
Otra noche para el bar, hemos salido a ver ké pasa
una vez más, nos vamos a drogar
Va subiendo el calentón y se van yendo mis problemas
una vez más, mañana volverán
El mundo pasa ante mi y la película es muy mala
ciencia ficción, nos vamos a drogar
hay kien busca colocón y otros sexo de rebajas
yo estoy muy bien, mañana volveré!
Estribillo (sin palm mute):
Sin política y sin Dios, sin ke nadie me sujete
vete a mamar, no me entretengas más
ke huevón y ké cojón, hoy no seré amigo de nadie
vete a soñar, me voy a colocar
No hay dinero ni colegas, tendré ke irme para casa
llegó el final de tanta diversión
La función se terminó, alguno ha hecho buena caza
alomejor me voy a casa o no!
Sin política y sin Dios, sin ke nadie me sujete
vete a mamar, no me entretengas más
ke huevón y ké cojón, hoy no seré amigo de nadie
vete a soñar, me voy a colocar!
Ahí está. Correcciones en la letra por mi amigo de
borratxeras y ojos rojos,
Lord: lord_ofprotean@hotmail.com
Sugerencias o preguntas: rompecocoz@hotmail.com




[Otra Noche chords][Otra Noche cifra]
© LaCuerda.net · aviso legal · privacidad · es · en · pt · contacto