Acordes de Guitarra » K »Kairo » Cuestión de piel (Tab)

Cuestión de piel
Kairo

Letras, Acordes y Tabs para Guitarra, Bajo y Ukulele

  • -------0---1---1----------------3---1---0----0----------3---1---0---1-----|
    ----3--------------------------------------------3---1--------------------|
    --2---------2---2---3---2---3-------------0----------------------------2--|
    --------------------------------------------------------------------------|
    --------------------------------------------------------------------------|
    --------------------------------------------------------------------------|
    
    
    -1----------------3---1---0-----0-----------------------------------------|
    -----------------------------------3---1----------------------------------|
    ---2---3---2---3-------------0--------------------------------------------|
    --------------------------------------------------------------------------|
    --------------------------------------------------------------------------|
    --------------------------------------------------------------------------|
    
      F           Dm
    Recuerdo el piano
         Bb         C
    En un cuarto desnudo
         F       Dm
    
  • +
    ¡Colabora con nosotros!
    Envíanos tu versión de esta canción

Letra de Cuestión de piel
Recuerdo el piano
En un cuarto desnudo
Tus ojos oscuros
El silencio y el ruido
Te besé
Cuestión de piel
Nunca estuve tan bien, (uoo)
Me encontré fuera de la ley
Por volver a encender el fuego
Que una vez nos quemó a los dos
Igual que… un papel
(Parte del piano: A, Dm, Bb, C, Am, Bb, Gm, Am)
(Se repiten los acordes de la primera estrofa)
El aire caliente
Cuatro frases urgentes
Tu boca en mi boca
Nos quitamos la ropa
Te besé
Cuestión de piel
Nunca estuve tan bien, (uoo)
Me encontré fuera de la ley
Por volver a encender el fuego
Que una vez nos quemó a los dos
Igual que… un papel
Espero les sea de su agrado compañeros (as), si hay algún error
en la letra o los acordes pueden contactarme para corregirlo... Saludos




[Cuestión de piel chords][Cuestión de piel cifra]
© LaCuerda.net · aviso legal · privacidad · es · en · pt · contacto
DINAMICO