Acordes de Guitarra » J »Jumbo » Siento Que (Tab)

Siento Que
Jumbo

Letras, Acordes y Tabs para Guitarra, Bajo y Ukulele

  • E                        A
    VIENES A MI CASA A OIR MIS DISCOS VIEJOS
    E                         A
    LA TELEVISION PRENDIDA VIENDO MI REFLEJO
    C#m             A    C#m             A
    ME COJES DE LA MANO, EN SERIE POLAROID
    C#m                A            B
    TE SIENTAS A MI LADO ME ABRAZAS
    A   G#            A
    ME ABRAZAS Y ME DEJAS
    
    CORO
     A               E   B    A
    SIENTO QUE ME QUIERES HOY
    A           E  B     A
    CREO QUE MA~ANA YA NO
    A              E    B     A
    QUIERO QUE ME QUIERAS HOY
    A               Eb              A
    QUIERO QUE MA~ANA SEA IGUAL QUE HOY
    
  •     C#m                   C#m
       Me cojes de la mano, en serie polaroid,
        C#m                   B-5
       te sientas a mi lado...me abrazas, 
                                     B-5 B-5
       agarras y me dejas......Siento que..........
     
    *CORO  
    
        E?         A-5        E?        A-5
      Me quieres hoy, creo que mañana, ya no.....
                       E?        A-5              E?
      No quiero que me quieras hoy, quiero que mañana...
              A-5
      sea igual que hoy..
    
    
      Juntos aqui estamos en el cuarto de enmedio,
    
      solos otra vez los dos fingiendo....
    
  • Cm7
    me coges de la mano
    Cm7
    de serie polaroid
    Cm7
    te sientas a mi lado
    B
    me abrazas......
    
    e---------------------
    B---------------------
    G-1h2-1------1h2-1----
    D-------2----------2--
    A---------------------
    E---------------------
    
    
    Agarras y me dejas
                     Cm7   A
    siento que me quieres hoy
    
  • intro
    
    primera guitarra
    e------4---------
    B------2---------
    G--4---2---------  X2
    D--2---2---------
    A--2---0---------
    E--0---0---------
    
    Verso1
    Vienes a mi casa..........
    Guitarra 1
    e------4---------
    B------2---------
    G--4---2---------  X4
    D--2---2---------
    A--2---0---------
    E--0---0---------
    
    Verso 2
    
    Me coges de la mano
    
    Guitarra 1
    e----------------
    B----------------
    G----------------
    D--6------4------
    A--6--X25-4--x8--
    E--4------2------
       PM     PM
    GUITARRA 2
    e--------------
    B--------------
    G--------------
    D--12------9---
    A--12-X3---9---
    E--10------7---
    
    verso 3
    no entiendo si quieres mas....
    guitara 1
    e---------2-------
    B---------3-------
    G--3---5--2-------
    D--3---5----------
    A--0---0----------
    E--2---4----------
    guitarra 2
    e--------------------------------------
    B--------------------------------------
    G--------------------------------------
    D-----------4--6----6----7----7-----
    A-----------4--6--6---6--7--7---7---
    E-----------2--4-----4---5-----5----
    
    
    Coro
    
    guitarra 1
    
    e---------
  • Intro
    G--------------------------------------
    D----6h7---6h7-------6h7----6h7--------  x2
    A--7-----7-----7---0------0------0-----
    E--------------------------------------
    
    Verso
    
    G--------------------------------------
    D----6h7---6h7-------6h7----6h7--------  x2
    A--7-----7-----7---0------0------0-----
    E--------------------------------------
    
    G----------------------
    D----------------------  x3
    A----------------------
    E-99999999/22222222----
    
    G--------------------------------------------
    D--------------------------------------------
    A--------------------------------------------
    E-7777777777777777-22222222-44444444-5555555555555555
    
    coro
    G-----------------------------------
    D-----------------------------------
    A----------------------------------- x4
    E-00000000000000002/5555555555555555
    
    verso
    
    G-----------------------------------
    D-----------------------------------
    A----------------------------------- x2
    E-00000000000000002/5555555555555555
    
    G----------------------
    D----------------------
  • Para los que no tienen un teclado o algo asi, puse este
    intro , es lo que hace el synth , chekenlo bien
    
    Intro
    
    G------------------------------------------- |
    D----6-7-6----6-7-6-------6-7-6---6-7-6----- | x2
    A--7--------7--------7----------7-------7--- |
    E-----------------------5------------------- |
    
    Verso : 
    
    "Vienes a mi casa...   ... discos viejos
    
    G------------------------------------------- |
    D----6-7-6----6-7-6-------6-7-6---6-7-6----- | x2
    A--7--------7--------7----------7-------7--- |
    E-----------------------5------------------- |
    
       Me coges  de la mano...
    G------------------------------------|
    D------------------------------------| x3
    A--4-4-4-4-4-4-4---------------------|
    E----------------5-5-5-5-5-5-5-5-5-5-|
    
      Me abrazas...      me agarras y me dejas
    G------------------------------------------------------
    D------------------------------------------------------
    A------------------------------------------------------
    E-7-7-7-7-7-7-7-7--5-5-5-
  • Q onda hermanos!, el baterista de jumbo que creo que se llama chuy
    guerra, juega con los tiempos antes del coro, entonces esta dificil
    ponerla igualita a como la toca, pero la rola va algo asi...
    
    1) INICIO
    hit hat x--x--x--x--x--x--x--x--x--x--x--x--x--x--x--x
    
    tarola  ------o--------------o-----------o--------o---
    
    bombo   d-----------d--d-----------d--d--------d------
    
    2) En...me coges de la mano.. cambia de ritmo, va como rock,
    HASTA DONDE DICE ME ABRAZAS, LUEGO CAMBIA DE RITMO
    hit hat x--x--x--x--x--x--x--x--x--x--x--x--x--x--x--x
    
    tarola  ------o-----------o-----------o-----------o---
    
    bombo   d-----------d-----------d-----------d---------
    HASTA DONDE DICE ME ABRAZAS, LUEGO CAMBIA DE RITMO A ESTE
    hit hat x--x--x--x--x--x--x--x--x--x--x--x--x--x--x--x
    
    tarola  ------o-----------o-----------o-----------o----O-O
    
    bombo   d--------d--d-----------d--------d--d---------
    
    3) CORO...(LOS "O" SON CON LAS 2 MANOS EN TAROLA)
    (tambien puede ser con solo 1 bombo y luego 2, 1 y luego 2...)
    has
  • +
    ¡Colabora con nosotros!
    Envíanos tu versión de esta canción
  • Tutorial
    HD
    VERSOS
    Como tocar SIENTO QUE en guitarra - Jumbo [Tutorial Rockstars]
    5:41

Letra de Siento Que
VIENES A MI CASA A OIR MIS DISCOS VIEJOS
LA TELEVISION PRENDIDA VIENDO MI REFLEJO
ME COJES DE LA MANO, EN SERIE POLAROID
TE SIENTAS A MI LADO ME ABRAZAS
ME ABRAZAS Y ME DEJAS
SIENTO QUE ME QUIERES HOY
CREO QUE MA~ANA YA NO
QUIERO QUE ME QUIERAS HOY
QUIERO QUE MA~ANA SEA IGUAL QUE HOY
MIENTRAS AQUI ESTAMOS EN EL CUARTO DE EN MEDIO
JUNTOS OTRA VEZ LOS DOS FINGIENDO
ME COJES DE LA MANO EN SERIE POLAROID
OYENDO ELLA ES MI DISCO DE NI~A
NO ENTIENDO O SI QUIERES MAS
ME ABRAZAS Y ME DEJAS SIN HABLAR
CORO(SOLO)
VIENES A MI CASA A OIR MIS DISCOS VIEJOS
REGRESAN LOS 80'S CUANDO VIENES
ME DEJAS CON MIS OJOS SIN TUS OJOS
si la letra esta un poco mal perdon pero no me la se de memoria




[Siento Que chords][Siento Que cifra]
© LaCuerda.net · aviso legal · privacidad · es · en · pt · contacto