Acordes de Guitarra » J »Juan Gabriel » Por qué me haces llorar (Tab)

Por qué me haces llorar
Juan Gabriel

Letras, Acordes y Tabs para Guitarra, Bajo y Ukulele

  • INTRODUCCION: DO LAm FA SOL
    
         DO             LAm
    Para qué me haces llorar,
           FA             SOL
    que no ves, como te quiero;
         DO             LAm
    para qué me haces sufrir,
           FA           SOL
    que no ves, que más no puedo.
    
    PRECORO
       DO                   LAm
    Yo nunca, nunca había llorado
       FA          SOL
    y menos, de dolor;
       DO                    LAm
    ni nunca, nunca había tomado
       FA            SOL
    y menos, por un amor.
    
  • e|---8-7-8-7-8-7-8---8-7-8-7-8-7-8--8-7-8-7-8-7-8---10-9-10-9-10-9-10------|
    B|-8---------------8---------------8--------------8------------------------|
    G|-------------------------------------------------------------------------|
    D|-------------------------------------------------------------------------|
    A|-------------------------------------------------------------------------|
    E|-------------------------------------------------------------------------|
    
    
    e|---8-7-8-7-8-7-8---8-7-8-7-8-7-8--8-7-8-7-8-7-8--------------------------|
    B|-8---------------8---------------8--------------8------------------------|
    G|-------------------------------------------------------------------------|
    D|-------------------------------------------------------------------------|
    A|-------------------------------------------------------------------------|
    E|-------------------------------------------------------------------------|
    
    e|-13-13-12-12-12-10-10-8-7-8-10-8-----------------------------------------|
    B|-------------------------------------------------------------------------|
    G|-------------------------------------------------------------------------|
    D|-------------------------------------------------------------------------|
    A|-------------------------------------------------------------------------|
    
  • +
    ¡Colabora con nosotros!
    Envíanos tu versión de esta canción

Letra de Por qué me haces llorar
Para qué me haces llorar,
que no ves, como te quiero;
para qué me haces sufrir,
que no ves, que más no puedo.
PRECORO
Yo nunca, nunca había llorado
y menos, de dolor;
ni nunca, nunca había tomado
y menos, por un amor.
Porque me haces llorar,
y te burlas de mí,
si sabes tú muy bien
que yo no sé sufrir.
Yo me voy a emborrachar,
a no saber de mí;
que sepan que hoy tomé,
que hoy me emborraché por tí.
Yo nunca, nunca había llorado
y menos, de dolor;
ni nunca, nunca había tomado
y menos, por un amor.
Porque me haces llorar,
y te burlas de mí,
si sabes tú muy bien
que yo no sé sufrir.
Yo me voy a emborrachar,
a no saber de mí;
que sepan que hoy tomé,
que hoy me emborraché por tí.




[Por qué me haces llorar chords][Por qué me haces llorar cifra]
© LaCuerda.net · aviso legal · privacidad · es · en · pt · contacto