Tablatura de Juan Gabriel: Por qué me haces llorar
Juan Gabriel  corregir
desconocido
Aqui les traigo la intro de la cancion ¿Por qué me haces llorar? disfruten!
La hice yo:P


e|---8-7-8-7-8-7-8---8-7-8-7-8-7-8--8-7-8-7-8-7-8---10-9-10-9-10-9-10------|
B|-8---------------8---------------8--------------8------------------------|
G|-------------------------------------------------------------------------|
D|-------------------------------------------------------------------------|
A|-------------------------------------------------------------------------|
E|-------------------------------------------------------------------------|


e|---8-7-8-7-8-7-8---8-7-8-7-8-7-8--8-7-8-7-8-7-8--------------------------|
B|-8---------------8---------------8--------------8------------------------|
G|-------------------------------------------------------------------------|
D|-------------------------------------------------------------------------|
A|-------------------------------------------------------------------------|
E|-------------------------------------------------------------------------|

e|-13-13-12-12-12-10-10-8-7-8-10-8-----------------------------------------|
B|-------------------------------------------------------------------------|
G|-------------------------------------------------------------------------|
D|-------------------------------------------------------------------------|
A|-------------------------------------------------------------------------|
E|-------------------------------------------------------------------------|
Este fichero es trabajo propio de su transcriptor y representa su interpretación personal de la canción. El material contenido en esta página es
para exclusivo uso privado, por lo que se prohibe su reproducción o retransmisión, así como su uso para fines comerciales.


Otras canciones del Artista

© LaCuerda.net · Aviso Legal · Privacidad