Acordes de Guitarra » J »Juan Gabriel » Abrazame Muy Fuerte (Tab)

Abrazame Muy Fuerte
Juan Gabriel

Letras, Acordes y Tabs para Guitarra, Bajo y Ukulele

  • G
    cuando tu estas conmigo 
                   D
    es cuando yo digo
       C  
    que  valio la pena todo
                             D
    todo   lo que yo he sufrido
    
     C                     Bm
    no se si es un sueño aun
     C          Bm Am
    o es una realidad 
     C
    pero cuando estoy contigo
                D
    es cuando digo
    
      G
    que este amor que siento es porque
    
  •    G                                   D
    Cuando tú estás conmigo es cuando yo digo,
            C                                   Bm
    que valió la pena todo todo lo que yo he sufrido,
        C                  B7   Em      Em/D  Em/C#
    no sé si es un sueño aun, o es una realidad,
           C                 D
    pero cuando estoy contigo, es cuando digo:
                                                      D/F#
    Que este amor que siento es porque tú lo has merecido,
    con decirte amor que otra vez he amanecido,
    llorando de felicidad, a tu lado yo siento que estoy viviendo,
     C        G
    nada es como ayer.                               B7sus4    224262
    
     Em                                        Am
    Abrázame que el tiempo pasa y el nunca perdona,
         D                                      G   B7sus4  B7
    ha hecho estragos en mi gente como en mi persona,
       Em                                        Am
    
  •  SOL                                 RE
    Cuando tú estás conmigo es cuando yo digo
           DO                                   SOL
    Que valió la pena todo, todo lo que yo he sufrido
       DO                SI7
    No sé si es un sueño aún
      MIm     RE  LA7
    O es una realidad
         DO                             RE7
    Pero cuando estoy contigo es cuando digo
    SOL                                               RE
    Que este amor que siento es por que tú lo has merecido
          DO                              SIm
    Con decirte amor que otra vez he amanecido
        DO            SI7
    Llorando de felicidad
         MIm      RE          LA7
    A tu lado yo siento que estoy viviendo
    DO             SOL
         Nada es como ayer
    
  • B7sus4 x22200
    Em/D   x52000
    Em/C#  x42000
    
    G                                   D
    Cuando tú estás conmigo es cuando yo digo,
            C                                   Bm
    que valió la pena todo todo lo que yo he sufrido,
        C                  B7   Em      Em/D  Em/C#
    no sé si es un sueño aun, o es una realidad,
           C                 D
    pero cuando estoy contigo, es cuando digo:
     G                                                 D/F#
    Que este amor que siento es porque tú lo has merecido,
          C                               Bm
    con decirte amor que otra vez he amanecido,
       C            B7         Em                    Em/D  Em/C#
    llorando de felicidad, a tu lado yo siento que estoy viviendo,
     C        G         B7sus4
    nada es como ayer.
    
  • Esta tablatura, es la melodia de esta bellisima cancion, espero que
    les guste. Quiero dedicarsela a el amor de mi vida, para 
    Elisa Velazquez Felix... Te amo mucho...
    
    
    E-------------------------------------------------------------------
    A-------------------------------------------------------------------
    D-------------------------------------------------------------------
    G-------------------------------------------------------------------
    B---------------------7-5-3---1-3-5--5-5-5-5-5-5-5-5-5-5-5-5-5-3----
    E-3-3-3-3-3-3-3-3-3-5-----------------------------------------------
    
    E-------------------------------------------------------------------
    A-------------------------------------------------------------------
    D-------------------------------------------------------------------
    G-------------------------------------------------------------------
    B-3-3-1-0-1---------------------------------------------------------
    E-----------3-2--2-3-3-2-3-2-3-2-0--0-0-3-0-3-0-3-0-3-
  • La afinacion del Bajo es normal (E A D G)
    Empezamos!!!
    
    El Bajo entra en el coro...
      Q=70
     4/4
        H    H      H    H      H    H      H    H
    |-----------|-----------|-----------|-----------|
    |-----------|-0----0----|-----------|-2----2----|
    |-0----0----|-----------|------2----|-----------|
    |-----------|-----------|-3---------|-----------|
    
    
      Q.   E H      H    H      Q.   E S S S S S S S S   H    H
    |-------------|-----------|--------4-2-----0-------|-----------|
    |-------------|-0----0----|--------------2---4-----|-2----2----|
    |-0------0----|-----------|----------------------2-|-----------|
    |-------------|-----------|-3----------------------|-----------|
    
    
      Q.   E Q.   E   H    H      H    Q  E E   H    H
    |---------------|-----------|-------------|-----------|
    |---------------|-0----0----|-------------|-2----2----|
    |-0------0------|-----------|------2--2---|-----------|
    |---------------|-----------|-3-----------|-----------|
    
    
      H    H      H    Q.   E   Q
  • +
    ¡Colabora con nosotros!
    Envíanos tu versión de esta canción

Letra de Abrazame Muy Fuerte
cuando tu estas conmigo
es cuando yo digo
que valio la pena todo
todo lo que yo he sufrido
no se si es un sueño aun
o es una realidad
pero cuando estoy contigo
es cuando digo
que este amor que siento es porque
to lo has merecido
con decirte amor que otra vez
he amanecido
llorando de felicidad
atu lado yo siento que estoy viviendo
nada es como ayer
abrazame que el tiempo pasa
y el nunca perdona
ha hecho estragos en mi gente
como en mi persona
abrazame que el tiempo es malo
y muy cruel amigo
abrazame que el tiempo es oro
si tu estas conmigo
abrazame fuerte ,muy fuerte
y mas fuerte que nunca
siempre abrazame
hoy que tu estas conmigo
yo no se si esta pasando el tiempo
tu lo has detenido
asi quiero estar por siempre
aprovecho que estas tu conmigo
te doy garacias por cada momento
de mi vivir
tu cuando mires para el cielo
por cada estrella qie aparesca
amor,es un te quiero
abrazame que el tiempo hiere
y el cielo es testigo
que el tiempo es cruel y a nadie quiere
por eso te digo
abrazame muy fuerte amor
mantenme asi tu lado
yo quiero agadecerte amor
todo lo que me has dado
(LOS ACORDES SE VAN REPITIENDO SUCESIVAMENTE,
ECEPTO AL ULTIMO QUE ACABA EN 'Mi menor')
quiero corresponderte
de una forma o a diario
amor yo nunca del dolor
he sido partidiario
pero alimento con sufrir
cuando por ti he creido
en alguien que juro que daba
su vida por mi
abrazame que el tiempo pasa
y ese no se detiene
abrazame muy fuerte amor,
que el tiempo en contra viene
abrazame que dios perdona
pero el tiempo a ninguno
abrazame que a el no le importa
saber quien es uno
abrazame que el tiempo pasa
y nunca perdona
ha hecho estragos en mi gente
como en mi persona
abraza me que el tiempo es malo
y muy cruel amigo
abrazame muy fuerte amor.




[Abrazame Muy Fuerte chords][Abrazame Muy Fuerte cifra]
© LaCuerda.net · aviso legal · privacidad · es · en · pt · contacto