Tablatura para Guitarra de Jovenes Pordioseros: Que se siente estar tan sola
Conexión · Inscripción
Letras y Acordes
Pantalla Completa
Imprimir
Versión Texto
Añadir Favorito
Otras Versiones

Mostrar Diagramas
Desfile Automático
Manipular Acordes
Formato del Texto


Que se siente estar tan sola(TAB)

Jovenes Pordioseros

calidad:
jpor0062
AUTOR: Toti iglesias
ALBUM: Probame (2000)
Enviado por Federico
Nota:
/   : slide
s   : slide
... : hacer una pausa
()  : levantar o bajar según lo indique el N° que esta dentro del paréntesis
h   : hamer om
p   : pull of


RIFF: (lo  hace sin distorsión mientras el otro hace el punteo)

1)-----0--------0------0-|-----0--------0-------0---|
2)---0---0----0---0-----0|---0---0----0---0-------0-|
3)-----------------------|--------------------------|
4)-----------------------|--------------------------|
5)-7----------------7...-|-7----------------7...----|
6)----------7------------|---------7----------------|

INTRO

1)-----0--------0-------|--------------------|--------------|-------|
2)---0---0----0---0-----|--------------------|--------------|-------|
3)----------------------|----9-11-12(13)-9...|-----9--------|-9h13p9|
4)----------------------|9/11----------------|9/11--11-11...|-------|
5)-7----------------7---|--------------------|--------------|-------|
6)---------7------------|--------------------|--------------|-------|

1)-------------------------------|----------------------------------|
2)-------------------------------|----------------------------------|
3)-9/11-9-----------9------------|------9--11/12/11--9-11--9(8)...--|
4)-------11...--9/11-11--9/11...-|-9s11--11-------------------------|
5)-------------------------------|----------------------------------|
6)-------------------------------|----------------------------------|

         riff 1:

1)----------------|--|
2)----------------|--|
3)----------------|x2|
4)-11-11--9/11-11-|--|
5)-9--9---7/9---9-|--|
6)----------------|--|

E5 B5 RIFF 1 B5: 7-9-X-X-X-X Vamos que nos queda tiempo para hablar, E5: X-7-9-X-X-X
E5 estoy mejor,
B5 estoy tranquilo, RIFF 1 RIFF 1 (x4) estoy normal,
E5 Vamos que nos queda tiempo para hablar, estoy mejor, estoy tranquilo, estoy normal, Se que no, no me vas a comprender, si te deje fue por culpa de tu error,
E5 B5 RIFF 1 Decime que se siente estar tan sola,
E5 B5 RIFF 1 si tu amigo no me llega ni a los pies,
E5 B5 RIFF 1 Decime que se siente estar tan sola, E5 B5 X911XXX si tu amigo no me llega ni a los pies, 1)----------------------|-------------| 2)----------------------|-------------| 3)-9/11…--7/9...-5/6...-|-5/6---------| 4)----------------------|-----9-6-----| 5)----------------------|---------9-7-| 6)----------------------|-------------|
E5 B5 RIFF 1 Vamos ya no hay cansancio en tu cara,
E5 B5 RIFF 1 Veo y se que te estas portando bien (con el), yo sigo igual estoy tocando con amigos, siempre asi siempre estoy zarpando mal, Decime que se siente estar tan sola, si tu amigo no me llega ni a los pies, Decime que se siente estar tan sola, si tu amigo no me llega ni a los pies. PUNTEO |aca levantar las | |cuerdas y dejarlas| |levantadas 1)-----------------------------|----------------------------------------- 2)-13^...--13^...--------------|-----------------12-12-12-12-12-12------- 3)---------12^...-11-9---------|----------9^-11--11-11-11-11-11-11-9----- 4)---------------------11-11...|-9/11-9-11--------------------------11... 5)-----------------------------|----------------------------------------- 6)-----------------------------|----------------------------------------- 1)------------|------------------|-------------------------------------| 2)9--9-9-11-9-|13(15)...---13(15)|-------------------------------------| 3)9--9-9-11-9-|------------12(15)|11p9----------9-11-9--------9-11-9---| 4)------------|------------------|----11-11-9/11------11--9/11------11-| 5)------------|------------------|-------------------------------------| 6)------------|------------------|-------------------------------------| 1)--------------|-----------------------------------------------------| 2)--------------|-------------------------------------------------9---| 3)--------------|--------------------------------------------9----9---| 4)11-9----------|---------9^-11---------9^-11----------9^-11---11-----| 5)-----11-9-----|----9-11-----------9-11-----------9-11---------------| 6)---------11-9-|9-11-----------9-11-----------9-11-------------------| 1)-------------------------------------------------------------------| 2)-9-9-12-9----9-9-12-9---9-9-12-9---9-9-12-9---9-9-12-9---9-9-12-9--| 3)-9-9-11-9----9-9-12-9---9-9-12-9---9-9-12-9---9-9-12-9---9-9-12-9--| 4)-------------------------------------------------------------------| 5)-------------------------------------------------------------------| 6)-------------------------------------------------------------------| 1)-------------------------------------------------------------------| 2)-9-9-12-9----9-9-12-9---9-9-12-9---9-9-12-9---9-9-12-9---9-9-12-9--| 3)-9-9-12-9----9-9-12-9---9-9-12-9---9-9-12-9---9-9-12-9---9-9-12-9--| 4)-------------------------------------------------------------------| 5)-------------------------------------------------------------------| 6)-------------------------------------------------------------------| ******************************************************************************* bueno.. espero que le sirva.... bueno... cualquier duda... o corrección hacerlo a federnr_la25@hotmail.com aguante jóvenes pordioseros, viejas locas, la 25, intoxicados, los gardelitos, dentro de poco maldito san telmo... nos vemos
Este fichero es trabajo propio de su transcriptor y representa su interpretación personal de la canción. El material contenido en esta página es
para exclusivo uso privado, por lo que se prohibe su reproducción o retransmisión, así como su uso para fines comerciales.

© LaCuerda.net · Aviso Legal · Privacidad