Acordes de Guitarra » J »Joaquín Sabina » Y sin embargo (Tab)

Y sin embargo
Joaquín Sabina

Letras, Acordes y Tabs para Guitarra, Bajo y Ukulele

  • INTRO:  [Subida]  Em  D  Em  Bm  Em  D  Em  [Subida]  [Bajada]
    
               Am7         D               Em
    VOZ:    De sobras sabes que eres la primera,
               G             D          Em
            que no miento si juro que daría
            D                Am7
            por ti la vida entera,
            D                Em   [Subida] [Bajada]
            por ti la vida entera;
               Am7         B7             Em
            y, sin embargo, un rato, cada día,
              D
            ya ves, te engañaría
                    Am7
            con cualquiera,
            C        D           Em
            te cambiaría por cualquiera.
    
               Am7        D            Em
    
  •   1     2     3                                      
    1------------------                                        
    2---------2--------                               
    3------------------                                     
    4---------2--------                                     
    5---1--------------                                     
    6------------------
    
    E10  1     2     3
    1----------2-------
    2------------------
    3----------2-------
    4----------1-------
    5----------2-------
    6------------------   
    
    MIm    LAm         RE                                
       De sobra sabes
                       MIm
       que eres la primera
    
  • E|-|--------------------------------------------
    B|-|--------------------------------------------
    G|-|-5-7-9------------------9-------------------
    D|-|-4-7-9---------------7----7-9-9-7---7-9-----
    A|-|--------10s12-8-10-8-------------7----------
    e|-|--------------------------------------------
    
    E|-|--------------------------------------------
    B|-|--------------------------------------------
    G|-|-5-7-9-------------------------------5-7-9--
    D|-|-4-7-9-------------------------------4-7-9--
    A|-|--------10s12-8-----------------------------
    e|-|-----------------10s12-10---8-7-5-7---------
    
    
               Am7        D               Em
    VOZ 1:  De sobra sabes que eres la primera,
               G             D          Em
            que no miento si juro que daría
            D                Am7
    
  •     RE#dimm    MIdimm
    MI---2----------3------          
    SI --1----------2------
    SOL--2----------3------          
    RE --1----------2------           
    LA --0----------0------          
    MI --0----------0------
    
    INTRO:    MIm  RE  MIm SIm7   MIm  RE7   MIm  
    
             LAm7              RE7            MIm     
     VOZ 1:  DE  SOBRAS SABES QUE ERES LA PRIMERA,
               SOL           RE7         MIm
             QUE NO MIENTO SI JURO QUE DARIA 
             RE             LAm         RE7           MIm
             POR TI LA VIDA ENTERA,  POR  TI LA VIDA ENTERA
                 LAm7       RE7             MIm            
               Y SIN EMBARGO  UN RATO CADA DIA,  
                   RE       RE7           LAm7  
            YA VES   TE  ENGAÑARIA CON CUALQUIERA, 
    
  • INTRO:    Em  Bm7/D Em  Bm7/D Em  Bm7/D   Em
    
               Am7         D               Em
    VOZ:    De sobras sabes que eres la primera,
               G             D          Em
            que no miento si juro que daría
            D                Am7
            por ti la vida entera,
            D                Em
            por ti la vida entera
               Am7         B7             Em
            y, sin embargo, un rato, cada día,
              D           Bm7/D
            ya ves, te engañaría
                    Am7
            con cualquiera,
            C        D           Em
            te cambiaría por cualquiera.
    
               Am7        D            Em
    
  • e|-|----------------------------------|-----------------------|
    B|-|-------------10h12-8----10--------|-----------------------|
    G|-|---------9----------9-----11-7----|---7-7h9---9h7-7h9-----|
    D|-|-9---12--9------------------------|--9--------------------|
    A|-|-10--12---------------------------|-----------------------|
    E|-|----------------------------------|-----------------------|
    
    e|-|----------------------10/12-10--|--8--------------------|-|
    B|-|------------10/12-8-------------|-----10--10h12---------|-|
    G|-|---------9----------------------|-----------------------|-|
    D|-|-9---12--9----------------------|-----------------------|-|
    A|-|-10--12-------------------------|-----------------------|-|
    E|-|--------------------------------|-----------------------|-|
    
    
    
             Am7         D               Em
    VOZ:    De sobras sabes que eres la primera,
               G             D          Em
            que no miento si juro que daría
    
  • E|-|------------------------------------|-----------------------|
    B|-|-------------10h12-8----10----------|-----------------------|
    G|-|---------10----------9-----11-7-----|---7-7s9s7-9s11s9-7----|
    D|-|-9---12--10---------------------9-7-|--9----------------9---|
    A|-|-10--12-----------------------------|-----------------------|
    e|-|------------------------------------|-----------------------|
    
    E|-|----------------------10/12-10--|--8-6s7-5-7---|-|
    B|-|---------10--10/12-8------------|--------------|-|
    G|-|---------10---------------------|--------------|-|
    D|-|-9---12-------------------------|--------------|-|
    A|-|-10--12-------------------------|--------------|-|
    e|-|--------------------------------|--------------|-|
    
    
    
             Am7         D               Em
    VOZ:    De sobras sabes que eres la primera,
               G             D          Em
            que no miento si juro que daría
    
  • +
    ¡Colabora con nosotros!
    Envíanos tu versión de esta canción
  • Tutorial
    Como tocar Y sin embargo - Sabina (Acordes Tutorial Guitarra)
    10:48

Letra de Y sin embargo
VOZ: De sobras sabes que eres la primera,
que no miento si juro que daría
por ti la vida entera,
por ti la vida entera;
y, sin embargo, un rato, cada día,
ya ves, te engañaría
con cualquiera,
te cambiaría por cualquiera.
Ni tan arrepentido ni encantado
de haberme conocido, lo confieso.
Tú que tanto has besado
tú que me has enseñado,
sabes mejor que yo que hasta los huesos
sólo calan los besos
que no has dado,
los labios del pecado.
ESTRIB: Porque una casa sin ti es una emboscada,
el pasillo de un tren de madrugada,
un laberinto
sin luz ni vino tinto,
un velo de alquitrán en la mirada.
Y me envenenan los besos que voy dando
y, sin embargo, cuando
duermo sin ti contigo sueño,
y con todas si duermes a mi lado,
y si te vas me voy por los tejados
como un gato sin dueño
perdido en el pañuelo de amargura
que empaña sin mancharla tu hermosura.
VOZ: No debería contarlo y, sin embargo,
cuando pido la llave de un hotel
y a media noche encargo
un buen champán francés
y cena con velitas para dos,
siempre es con otra, amor,
nunca contigo,
bien sabes lo que digo.
ESTRIB: Porque una casa sin ti es una oficina,
un teléfono ardiendo en la cabina,
una palmera
en el museo de cera,
un éxodo de oscuras golondrinas.
Y cuando vuelves hay fiesta en la cocina
y bailes sin orquesta
y ramos de rosas con espinas,
pero dos no es igual que uno más uno
y el lunes al café del desayuno
vuelve la guerra fría
y al cielo de tu boca el purgatorio
y al dormitorio el pan de cada día.




[Y sin embargo chords][Y sin embargo cifra]
© LaCuerda.net · aviso legal · privacidad · es · en · pt · contacto