Tablatura para Guitarra de Joaquín Sabina: Y sin embargo
Conexión · Inscripción
Letras y Acordes
Pantalla Completa
Imprimir
Versión Texto
Añadir Favorito
Otras Versiones

Mostrar Diagramas
Desfile Automático
Manipular Acordes
Formato del Texto


Y sin embargo(TAB)

Joaquín Sabina

calidad:
sabi0754
AUTOR: Antonio G. De Diego, Diego, Joaquín Sabina, Pancho Varona
ALBUM: Yo, Mi, Me Contigo
Enviado por David, basado en Alejandro
intro:

e|-|----------------------------------|-----------------------|
B|-|-------------10h12-8----10--------|-----------------------|
G|-|---------9----------9-----11-7----|---7-7h9---9h7-7h9-----|
D|-|-9---12--9------------------------|--9--------------------|
A|-|-10--12---------------------------|-----------------------|
E|-|----------------------------------|-----------------------|

e|-|----------------------10/12-10--|--8--------------------|-|
B|-|------------10/12-8-------------|-----10--10h12---------|-|
G|-|---------9----------------------|-----------------------|-|
D|-|-9---12--9----------------------|-----------------------|-|
A|-|-10--12-------------------------|-----------------------|-|
E|-|--------------------------------|-----------------------|-|



Am7 D Em VOZ: De sobras sabes que eres la primera,
G D Em que no miento si juro que daría
D Am7 por ti la vida entera,
D Em por ti la vida entera;
Am7 B7 Em y, sin embargo, un rato, cada día,
D ya ves, te engañaría
Am7 con cualquiera,
C D Em te cambiaría por cualquiera.
Am7 D Em Ni tan arrepentido ni encantado
G D Em de haberme conocido, lo confieso.
D Am7 Tú que tanto has besado
D Em tú que me has enseñado,
Am7 B7 Em sabes mejor que yo que hasta los huesos
D sólo calan los besos
Am7 que no has dado,
C D Em los labios del pecado.
G C D ESTRIB: Porque una casa sin ti es una emboscada,
Am B7 Em el pasillo de un tren de madrugada,
C un laberinto
A7 sin luz ni vino tinto,
Am C D un velo de alquitrán en la mirada.
G C G Y me envenenan los besos que voy dando
C G y, sin embargo, cuando
G7 C [C/B] duermo sin ti contigo sueño,
Am C D y con todas si duermes a mi lado,
Am7 Em G y si te vas me voy por los tejados
G7 C [C/B] como un gato sin dueño
Am Am7 D perdido en el pañuelo de amargura
Am7 C B7 que empaña sin mancharla tu hermosura.
PUNTEO: Am7 D Em G D Em D Am7 C D Em
Am7 D Em VOZ: No debería contarlo y, sin embargo,
G D Em cuando pido la llave de un hotel
D Am7 y a media noche encargo D Em [D|---0-4-2--] un buen champán francés [A|-2--------]
Am7 B7 Em y cena con velitas para dos,
D siempre es con otra, amor,
Am7 nunca contigo,
C D Em bien sabes lo que digo.
G C D ESTRIB: Porque una casa sin ti es una oficina,
Am B7 Em un teléfono ardiendo en la cabina,
C una palmera
A7 en el museo de cera,
Am C D un éxodo de oscuras golondrinas.
G C G Y cuando vuelves hay fiesta en la cocina
C G y bailes sin orquesta
G7 C [C/B] y ramos de rosas con espinas,
Am C D pero dos no es igual que uno más uno
Am7 Em G y el lunes al café del desayuno
G7 C [C/B] vuelve la guerra fría
Am Am7 D y al cielo de tu boca el purgatorio
Am7 C B7 y al dormitorio el pan de cada día. El acorde Am7 suena mucho mejor doblando el Sol de septima en la primera cuerda.
Am7 e|-3--| B|-1--| G|-0--| D|-2--| A|-0--| E|-X--| Espero disfruten esta gran canción tanto como yo.
Este fichero es trabajo propio de su transcriptor y representa su interpretación personal de la canción. El material contenido en esta página es
para exclusivo uso privado, por lo que se prohibe su reproducción o retransmisión, así como su uso para fines comerciales.


© LaCuerda.net · Aviso Legal · Privacidad