Acordes de Guitarra » J »Joaquín Sabina » Princesa (Tab)

Princesa
Joaquín Sabina

Letras, Acordes y Tabs para Guitarra, Bajo y Ukulele

  • INTRO;     RE   LAm  DO  SOL   
    
                         RE             DO                  
    VOZ 1: Entre la cirrosis y la sobredosis
                          SOL
          andas siempre muñeca
                          RE                     DO                   
          con tu sucia camisa y en lugar de sonrisa 
                        SOL
          una especie de mueca,
         DO            SOL                
          como no imaginarte, 
                     SIm7                LAm   ( LAm SIm)  
         como no recordarte hace apenas dos años,
        DO                   SOL                 SIm7  
         Cuando eras la princesa , de la boca de fresa
                                 FA7             RE 
         cuando tenias aun esa forma de hacerme daño.
    
    
    
  • G           D               C                       G
    Entre la cirrosis y la sobredosis andas siempre mu¤eca
    
                   D                     C                    G
    con tu sucia camisa y en lugar de sonrisa una especie de mueca,
    
    C              G                   Bm7                   Am     Am Bm C 
      como no imaginarte, como no recordarte hace apenas dos a¤os,
    
                       G                  Bm7  
    cuando eras la princesa de la boca de fresa,
    
                         F                 D 
    cuando tenias aun esa forma de hacerme da¤o.
    
    
    
    G            C               D 
    Ahora es demasiado tarde princesa,
    
    
  • ------------------------------------------------------------------------------------------
    ------------------------------------------------------------------------------------------
    ---------------------4---7------7---4---7---5-------5---4---5---4---5---4---5---------
    ------------5---7-------------------------------------------------------------------7----
    ----5---7--------------------------------------------------------------------------------
    -----------------------------------------------------------------------------------------
    
    ---------------------------------------------------------------------
    ---------------------------------------------------------------------
    -------------------------4-------------------------------------------
    ---5---7---5---7---5--------5--------------------5-----------------
    ----------------------------------7---5-------7---------------------
    ---------------------------------------------------------------------
    
    G            D               C                       G
    Entre la cirrosis y la sobredosis andas siempre muñeca
                    D                     C                     G
    con tu sucia camisa y en lugar de sonrisa una especie de mueca
    
    A  -----0---2--                 
    
  • +
    ¡Colabora con nosotros!
    Envíanos tu versión de esta canción
  • Tutorial
    HD
    Como tocar Princesa - J. Sabina (Guitarra FACIL tutorial acordes)
    9:32
  • Tutorial
    Como Tocar Princesa.
    2:45

Letra de Princesa
VOZ 1: Entre la cirrosis y la sobredosis
andas siempre muñeca
con tu sucia camisa y en lugar de sonrisa
una especie de mueca,
como no imaginarte,
como no recordarte hace apenas dos años,
Cuando eras la princesa , de la boca de fresa
cuando tenias aun esa forma de hacerme daño.
ESTRIB: Ahora es demasiado tarde princesa, SOL DO RE
buscate a otro perro que te ladre princesa.
VOZ 2; Maldito sea el guru
Que levanto entre tu y yo un silencio oscuro
del que ya solo sales para decirme:
'vale!, dejame veinte duros',
ya no te tengo miedo nena,
pero no puedo seguirte en tu viaje,
cuantas veces hubiera dado la vida entera,
porque tu me pidieras llevarte el equipaje.
ESTRIB:
VOZ 3; Tu que sembraste en todas las islas de la moda
las flores de tu gracia,
como no ibas a verte envuelta en una muerte
con asalto a farmacia,
con que ley condenarte,
si somos juez y parte todos de tus andanzas,
sigue con tus movidas, reina,
pero no pidas que me pase la vida pagandote fianza.

ESTRIB:
FINAL: intro




[Princesa chords][Princesa cifra]
© LaCuerda.net · aviso legal · privacidad · es · en · pt · contacto