Acordes de Guitarra » J »Joaquín Sabina » Parte Metereológico (Tab)

Parte Metereológico
Joaquín Sabina

Letras, Acordes y Tabs para Guitarra, Bajo y Ukulele

  • Dedicada A MI hermano del alma, Julián López...  Gatitooooooooo!
    
    
    Parte Meteorolígoco
    
    E |--------------------------------------------------------------------
    B |---7/9-9-9-9-9-7-7-5---7/8-8-8-8-8-7-7-5---7/9-9-9-9-9-12-12-10-10-5
    G |--------------------------------------------------------------------
    D |---7/9-9-9-9-9-7-7-6---8/9-9-9-9-9-7-7-6---7/9-9-9-9-9-11-11-9--9--6
    A |--------------------------------------------------------------------
    E |--------------------------------------------------------------------
    
    E |----------------------------------------
    B |---7/8-8-8-8-8-7-7-5--------------------
    G |----------------------------------------
    D |---8/9-9-9-9-9-7-7-6--------------------
    A |----------------------------------------
    E |----------------------------------------
    
    
    
  • E                                   A
    Se anuncia entre los dos tiempo inestable
       E                     C#m
    asoman a tus ojos las tormentas,
         A              E
    por la noche es probable
             A            E
    que el viento sea variable,
              B        A            E
    que me quieras… y luego te arrepientas.
    
    
    La isobaras ven hielo en tus venas
    y en tu pañuelo un mar que se sofoca
    y auguran las antenas
    que harán falta cadenas
    para subir al puerto de tu boca.
    
    
       G#m                   F#m
    
  • +
    ¡Colabora con nosotros!
    Envíanos tu versión de esta canción

Letra de Parte Metereológico
Parte Meteorolígoco
Se anuncia entre los dos tiempo inestable
asoman a tus ojos las tormentas,
por la noche es probable
que el viento sea variable,
que me quieras… y luego te arrepientas.
La isobaras ven hielo en tus venas |
y en tu pañuelo un mar que se sofoca |
y auguran las antenas | --> Igual que la primera.
que harán falta cadenas |
para subir al puerto de tu boca. |
Besarte es desatar un huracán
que suba en el termómetro el mercurio,
algunas nieves dan
calor cuando se van
fundiendo entre el desierto y el diluvio.
A, E, I, O, U
a mi boda fueron todas menos tú.
marejada ni contigo ni sin tí.
Lo malo es que después la gota fría |
se instala entre mis huesos y los tuyos, |
corrige mi alegría | --> Igual que la 1º.
la noche de aquel día |
que me condena al páramo y al trullo. |
Caerá un rayo en mi torre de Babel, |
arrasarán las plagas y la hambruna, |
vendrán lunas de hiel, | --> Igual que la 3º.
si el desamor no encuentra su vacuna. |
A, E, I, O, U
a mi boda fueron todas menos tú.
marejada ni contigo ni sin tí.
A, E, I, O, U
a tu vera el dulce hogar era un iglú
marejada ni conti…
marejada ni conmi…
marejada ni contigo ni sin tí.
Por: Lucas Olivero...




[Parte Metereológico chords][Parte Metereológico cifra]
© LaCuerda.net · aviso legal · privacidad · es · en · pt · contacto