Acordes de Guitarra » J »Joan Manuel Serrat » Lucía (Tab)

Lucía
Joan Manuel Serrat

Letras, Acordes y Tabs para Guitarra, Bajo y Ukulele

  • Dm                        Gm
    Vuela esta canción para tí, Lucía,
                   Dm                        A7
    la más bella historia de amor que tuve y tendré.
                       Dm               Gm
    Es una carta de amor que se lleva el viento
                   Dm
    pintado en mi voz
                A7              Dm
    a ninguna parte, a ningún buzón.
    
                      C
    No hay nada más bello
                            F
    que lo que nunca he tenido;
                A7                  Dm
    nada más amado que lo que perdí.
                  Gm                Dm
    Perdóname si hoy busco en la arena
               E7                  A
    
  •  x_____/Bm7b5   ______/E7   ______/Asus2/G ______/Dsus2/F
      ||||||          |||o||       ||||||          o|||||
      |o|o||          |o||||       ||oo||          |||o||
      ||o|o|          ||||o|       o|||||          ||||o|
      ||||||          ||||||       ||||||          ||||||
    
    
     x_____/Am/C    xx____/Dm7  ______/G7(no5) ______/C7 
      ||||o|          ||||oo       |||||o          ||||||
      ||oo||          |||o||       |o||||          ||o|||
      |o||||          ||||||       o|o|||          |o||||
      ||||||          ||||||       ||||||          ||||||
    
     ______/Esus4   x_____/Dm/B x_____/Gm6     x_____/A7
      ||||||          |||||o       |o||||          ||||||
      |ooo||          |o|o||       ||o|||          ||o|o|
      ||||||          ||||o|       ||||o|          |||||o
      ||||||          ||||||       ||||||          ||||||
    
     x_____/Dm/C    x_____/G7/B ______/G7
    
  •            LAm         MI7                              MI 
    ||----------0--0-0------x--------------------------------x----|
    ||-1-0-1-3--1------3-2--3-3---3-3-1-0-1-3-1-0---0-0-0----x----|
    ||----------2-----------1-----------------------------2--1----|
    ||----------2-----------2--------------------------------2----|
    ||----------0-----------2--------------------------------2----|
    ||----------x-----------0--------------------------------0----|
    
                  LAm          MI             LAm         MI           LAm
    |--------------0---0-0------x---1-0--------x-----------x------------x--|
    |-1-1-1-0-1-3--1-------3-2--3-------3-1-0--1---3-1-0---0---1-0------x--|
    |--------------2------------1--------------2---------2-1-------2-1--2--|
    |--------------2------------2--------------2-----------2------------2--|
    |--------------0------------2--------------0-----------2------------0--|
    |--------------x------------0--------------x-----------2------------x--|
    
                                                 MI           LAm
    |-0-0-5-3-5-3---5-7-8-7-5--------------1-0-1--0-------0-0--x--|
    |-------------------------8-6-5---1-1---------0---0-0------1--|
    |---------------------------------------------1------------2--|
    
  • +
    ¡Colabora con nosotros!
    Envíanos tu versión de esta canción
  • Tutorial
    HD
    Como tocar Lucia - Joan Manuel Serrat / David Bisbal / Rosario Flores (Acordes tutorial guitarra)
    15:22

Letra de Lucía
Vuela esta canción para tí, Lucía,
la más bella historia de amor que tuve y tendré.
Es una carta de amor que se lleva el viento
pintado en mi voz
a ninguna parte, a ningún buzón.
No hay nada más bello
que lo que nunca he tenido;
nada más amado que lo que perdí.
Perdóname si hoy busco en la arena
una luna llena que arañaba el mar.
Si alguna vez fui un ave de paso
lo olvidé para anidar en tus brazos.
Si alguna vez fui bello y fui bueno
fue enredado en tu cuello y tus senos.
Si alguna vez fui sabio en amores
lo aprendí de tus labios cantores.
Si alguna vez amé, si algún día
después de amar amé
fue por tu amor Lucía, Lucía.
Tus recuerdos son cada día más dulces.
El olvido solo se llevó la mitad.
Y tu sombra aún se acuesta en mi cama
con la oscuridad
entre mi almohada y mi soledad.




[Lucía chords][Lucía cifra]
© LaCuerda.net · aviso legal · privacidad · es · en · pt · contacto