Acordes de Guitarra » J »Joan Manuel Serrat » la Saeta (Tab)

la Saeta
Joan Manuel Serrat

Letras, Acordes y Tabs para Guitarra, Bajo y Ukulele

  • FA#7            SIm
    Oh la saeta al cantar 
                      LA
    al cristo de los gitanos
                    SOL
    siempre con sangre en las manos
          LA           RE
    siempre por desenclavar.
        
    Cantar del pueblo andaluz 
    que todas las primaveras 
    anda pidiendo escaleras 
    para subir a la cruz.
    
    FA#7              SIm
    Cantar de la tierra mia 
             LA
    que echa flores
                      SOL
    al jesus de la agonia 
    
  •                       REm
    A)Oh, la saeta, el cantar
                       LAm
    al Cristo de los gitanos
                              LA#
    siempre con sangre en las manos,
            DO          FA-LA7
    siempre por desenclavar.
    
    A1)Cantar del pueblo andaluz
    que todas las primaveras
    anda pidiendo escaleras
    para subir a la cruz.
    
    A2)Cantar de la tierra mía
    que echa flores
    al Jesús de la agonía
           SOLm         LA7
    y es la fe de mis mayores.
    
    
  • Bueno esta cancion me encanta sobre todo cuando llega semana santa,
    perfecta.
    
    E-||-----------------------------------------------------------||
    B-||-------------0-1---1-1-0---------0-0---0-0-----------------||
    G-||----------2---------------2-0-2---------------2-0-------0--||
    D-||-2-2-2-2---------------------------------------------3-----||
    A-||-----------------------------------------------------------||
    E-||-----------------------------------------------------------||
    
    E-||---------------------------------------------------0-0-----||
    B-||--------------------------------------0-1--1-1-1-1-----3-3-||
    G-||-2-2--2-2-0----------0------------2------------------------||
    D-||--------------3-2-3-----2-2-2-2----------------------------||
    A-||-----------------------------------------------------------||
    E-||-----------------------------------------------------------||
    
    E-||---------0-------------------------------------------------||
    B-||-3-3-3-3---3--1-1--3-1-0--------0-------------0-1-0---1-1
  • +
    ¡Colabora con nosotros!
    Envíanos tu versión de esta canción

Letra de la Saeta
Oh la saeta al cantar
al cristo de los gitanos
siempre con sangre en las manos
siempre por desenclavar.

Cantar del pueblo andaluz
que todas las primaveras
anda pidiendo escaleras
para subir a la cruz.
Cantar de la tierra mia
que echa flores
al jesus de la agonia
y es la fe de mis mayores.
Hoy no eres tu mi cantar
no puedo cantar ni quiero
a este jesus del madero
sino al que anduvo en la mar.
Hoy no eres tu...




[la Saeta chords][la Saeta cifra]
© LaCuerda.net · aviso legal · privacidad · es · en · pt · contacto