Acordes de Guitarra » J »Jesús Adrián Romero » Nadie se lo imaginó (Tab)

Nadie se lo imaginó
Jesús Adrián Romero

  • Letra y Acordes
           D
    Nadie se lo imagino
                   F#m
    que el Rey del mundo el Salvador
            Gmaj9                   D
    en un establo de Belen iba a nacer
           D
    todo fue tan diferente
           F#m
    a como lo esperaban ver
            Gmaj9
    el Salvador en un pesebre
                A
    en vez de fuerte debil fue
     Bm7                    Gmaj9
    fue como raiz en tierra seca
                      D
    como ver a un renuevo
                      A
    castigado por el sol
    
  • Letra y Acordes
    Intro: C G Am G
    
    
           C (D)
    Nadie se lo imaginó
                    G (A)1
    que el rey del mundo, el salvador
             Am (Bm)
    en un establo de Belén,
             G (A)
    iba a nacer
    
           C (D)
    Todo fue tan diferente
            G (A)
    a como lo esperaban ver
             Am (Bm)
    el salvador en un pecebre,
                G (A)
    en vez de fuerte debil fue
    
  • Letra y Acordes
    INTRO: A Amaj7 D A
    
    (1)**
          A
    Nadie se lo imaginó
                    Amaj7
    que el rey del mundo, el salvador
             D
    en un establo de Belén,
             G (E)
    iba a nacer
    
    CORO
           A
    Todo fue tan diferente
            Amaj7
    a como lo esperaban ver
             D
    el salvador en un pecebre,
              E
    
  • Tablatura
    |------------------------------------------------------------------|
    |----------------0-------------------------------0-----------------|
    |-1-------------------------------4--------------------------------|
    |----------2--------------2----------------6--------------6--------|
    |------2-------2------2-------2--------6-------6------6------------|
    |-0--0---0---0---0--0---0---0-----4--4---4---4---4--4---4---4------|
    
    
    |----------------4-------------------------------------------------|
    |-2-----------------------2----------------------0-----------------|
    |----------2----------4-----------1--------------------------------|
    |------2-------2---------------------------2-----------------------|
    |-0--0---0---0---0--0---0--------------2-------2-------------------|
    |---------------------------------0--0---0---0---0-----------------|
    
    Estrofa:
    
    |-------------------------------------------------------------------|
    |----------------0-------------------------------0------------------|
    |-1-------------------------------4-----------------------4---------|
    
  • +
    ¡Colabora con nosotros!
    Envíanos tu versión de esta canción

Letra de Nadie se lo imaginó
Nadie se lo imaginó
que el rey del mundo, el salvador
en un establo de Belén,
iba a nacer
Todo fue tan diferente
a como lo esperaban ver
el salvador en un pecebre,
en vez de fuerte debil fue
Fue como raiz en tierra seca
como ver a un renuevo
castigado por el sol
Fue como una llama en la tormenta
como ver solo una gota
en el desierto descender
Bienaventurado aquel
que no haya en el tropiezo
que puede en el creer sin distraccion
Bienaventurado aquel
que puede recibirlo
y darle al rey morada en su interior



© LaCuerda.net · aviso legal · privacidad · contacto
DINAMICO