Acordes de Guitarra » J »Jesús Adrián Romero » Te daré lo mejor (Tab)

Te daré lo mejor
Jesús Adrián Romero

Letras, Acordes y Tabs para Guitarra, Bajo y Ukulele

  • Intro*----*  E
    
    E       Asus2          E             Bsus2    
    Traemos hoy ante tu altar nuestras coronas
    E        Asus2       E              Bsus2   
    Queremos darte lo mejor de nuestras vidas
    F#m(7)           C#m
    Te entregare mi amor entero
    Asus2         Bsus2
    Lo sueños que logre alcanzar
    
    Coro
    C#m          A5         E
    Te daré lo mejor de mi vida
    C#m          A5       Bsus2
    Te daré lo mejor cada día
    G#m                       C#m
    Será mucho mas que una canción
    A5                    F#m   Bsus2
    Mi obediencia es mi mejor adoración
    
  • Tono: E
    
    Intro: E F#m7(add4) E F#m(add4) X2
    
    E         Aadd2          E             Bsus4
      Traemos hoy ante tu altar nuestras coronas
    E          Aadd2         E              Bsus4
      Queremos darte lo mejor de nuestras vidas
    F#m7(add4)          C#m7
      Te entregaré mi amor eterno
    Add4                 Bsus4       Badd4
      Los sueños que logre alcanzar
    
    Coro:
            C#m7    Add4      E
      Te daré lo mejor de mi vida
            C#m7    Add4      Bsus4   Badd4
      Te daré lo mejor cada día
    G#7(sus4)    G#7            C#m7
      Será mucho más que una canción
    
  • Intro E  A  E  B (G#-E-F#-G#x3-F#-E-C#-B-B)
    
    E         Asus2          E             Bsus2
      Traemos hoy ante tu altar nuestras coronas
    E          Asus2       E              Bsus2
      Queremos darte lo mejor de nuestras vidas
    F#m7             C#m
      Te entregare mi amor entero
    Asus2            Bsus2
      Lo sueños que logre alcanzar
    
    Coro
        C#m       A5        E
    Te daré lo mejor de mi vida
        C#m       A5      Bsus2
    Te daré lo mejor cada día
    G#m                         C#m
      Será mucho más que una canción
           A5             F#m  Bsus2
    Mi obediencia es mi mejor adoración
    
  • E        A             E              B
    Traemos hoy ante tu altar nuestras coronas
    E         A          E               B
    Queremos darte lo mejor de nuestras vidas
    F#m              C#m
    Te entregare mi amor entero
    A                 B
    Lo sueños que logre alcanzar
    
    -- CORO --
      C#m           A         E
    //Te daré lo mejor de mi vida
    C#m           A        B
    Te daré lo mejor cada día
    G#                           C#m
      Será mucho mas que una canción
            A             F#m   B
    Mi obediencia es mi mejor adoración//
    
    
    
  • Aki esta la intro de te daré lo mejor
    posicionamos con esta cejilla y después ejecutamos las siguientes notas
      Cejilla
    E|-----4-----4---------4----4---------4----4--------4------------------|
    B|-----4--------5-5h7----------5-5h7----------5-5h7----5h7--5----5-----|
    G|-----4------------------------------------------------------4h6------|
    D|-----4------------------7-------------6------------------------------|
    A|-----4---------------------------------------------------------------|
    E|-----4---------------------------------------------------------------|
    Se ejecuta todo 2 veces
    Recuerden dejar la cejilla siempre y ejecutando las notas al mismo tiempo
    
    
    
    
    La segunda “intro” para el segundo verso es similar solo cambia el final
    
      Cejilla
    E|-----4-----4-------4----4--------4----4--------4---------------|
    B|-----4-------5-5h7---------5-5h7---------5-5h7----5—5h7-5------|
    G|-----4----------------------------------------------------4h6--|
    D|-----4----------------7----
  • ¡Hola! Otra vez, esta es mi 3er trascripción, esta alabanza me gusta mucho porque tenemos que darle lo mejor
    a Dios y nos hace reflexionar si en verdad lo hacemos, las figuras son fáciles pero tienes que oirla.
    
    Intro:
    B-----------------------------------------|
    E--0-0----0-0----0-0----0-0---3--s--7--5--|
    A-----------------------------------------|
    D-----------------------------------------|
    G-----------------------------------------|
    2 veces
    
    Estrofa
    B-----------------------------|-----------------------------|
    E--0--0---5--5---0--0---------|--0--0---5--5---0--0---------|
    A------------------------2-2--|------------------------2-2--|
    D-----------------------------|-----------------------------|
    G-----------------------------|-----------------------------|
    Te entregaré...
    B------------------------------|
    E--2-2-------------------------|
    A--------4-4----0-0----2-2-----|
    D------------------------------|
    G------------------------------|
    
    Coro:
    B----------------
  • intro:
    G:-------------------
    D:-2s-4-2-4-2s-4-2-4-
    A:-------------------
    E:-------------------
    
      TRAEMOS HOY ANTE TU ALTAR NUESTRAS CORONAS
    G:--------------------------
    D:2---2--------2---2--------
    A:-------0---0--------2-2-2-
    E:--------------------------
    
    QUEREMOS DARTE LO MEJOR DE NUESTRAS VIDAS
    
    G:--------------------------
    D:2---2--------2---2--------
    A:-------0---0--------2-2-2-
    E:--------------------------
    
    TE ENTREGARE MI AMOR ENTERO LOS SUEÑOS QUE LOGRE ALCANZAR
    
    G:--------------------------
    D:-3-3----------------------
    A:-----3-3-3-0-0-0-2-2-2-2s-
    E:--------------------------
    
    (CORO)
    TE DARE LO MEJOR DE MI VIDA
    
    G:-------------------------
    D:-------------------------
    A:-3-3-3--0-0-0--2-2-2-----
    E:-------------------------
    
    TE DARE LO MEJOR CADA DIA
    G:---------------------------
    D:---------------------------
    A:-3-3-3--0-0-0--2-2-2-------
    E:---------------------------
    
    SERA MUCHO MAS QUE UNA CANCION
    
    G:-----------------------------
    D:-----------------------------
    A:-----------
  • +
    ¡Colabora con nosotros!
    Envíanos tu versión de esta canción

Letra de Te daré lo mejor
Traemos hoy ante tu altar nuestras coronas
Queremos darte lo mejor de nuestras vidas
Te entregare mi amor entero
Lo sueños que logre alcanzar
Te daré lo mejor de mi vida
Te daré lo mejor cada día
Será mucho mas que una canción
Mi obediencia es mi mejor adoración
Traemos hoy ante tu altar nuestras coronas
Queremos darte lo mejor de nuestras vidas
Daremos solo las primicias
Pues tu mereces lo mejor
Te dare lo mejor de mi
Te dare lo mejor
Saludos a la band de Torre Fuerte bendiciones
Gracias Dios!
dudas al mail con mucho gusto!




[Te daré lo mejor chords][Te daré lo mejor cifra]
© LaCuerda.net · aviso legal · privacidad · es · en · pt · contacto