Acordes de Guitarra » J »Jesús Adrián Romero » Bienaventurado (Tab)

Bienaventurado
Jesús Adrián Romero

Letras, Acordes y Tabs para Guitarra, Bajo y Ukulele

  •            G7         G
    cuando te quieran llevar
              G7
    por el camino del mal
           Dm7 -       Am7   Dm7 - Am7
    no convengas no no no
    
    
            G7          G
    sus argumentos tendran
             G7        G
    para quererte desviar
             Dm7 - Am7  Dm7  Am7
    mas no cedas
    
    F               G                          Dm7 - Am7  Dm7 Am7
     bienaventurado, como arbol plantado seras
    
               G7         G
    cuando te quieran llevar
    
  • intro: Dm Am
    
     Gm
    Cuando te quieran llevar por el camino del mal
             Dm
    No conbengas no,no,no.
    Gm
    Sus argumentos tendran para quererte llevar
     Dm
    Mas no cedas
    
    (pre-coro)
      FA             G                     Dm
    Bienaventurado como arbol plantado seras.
    Gm
    Cuando te quieran llevar por el camino del mal
         Dm
    No conbengas no,no,no
    Gm
    Sus argumentos tendran para quererte desviar
    
  •   Fsus2/C   Am7/G    G7    Cmaj9oMIt3   FAdd9
    
    1   -0-      -0-     -0-       -0-        -0-
    2   -5-      -7-     -5-       -5-        -7-
    3   -7-      -6-     -7-       -4-        -7-
    4   -7-      -7-     -6-       -6-        -7-
    5   -0-      -7-     -7-       -0-        -5-
    6   -X-      -X-     -0-       -X-        -X-
    
         G    A7/oMIt5  FAdd9/C    C     Gsus4
    
    1   -0-      -0-      -0-     -0-     -0-
    2   -0-      -7-      -7-     -5-     -0-
    3   -9-      -9-      -7-     -6-     -9-
    4   -6-      -8-      -7-     -7-     -7-
    5   -7-      -9-      -5-     -0-     -7-
    6   -0-      -X-      -5-     -X-     -X-
    
         Dm     Em    FAug    Dm7
    
    
  • hola de nuevo aqui esta el solo de Bienaventurado de
    Jesus adrian romero,
    ¡atencion en los tiempos! y queda igualita o eso espero!
    
    
    e|-------------------------------------------------
    B|-----------------------------------12s-15-15-13--
    G|------------10-10-10-10h-12-10-10----------------
    D|-10s-12-12---------------------------------------
    A|-------------------------------------------------
    E|-------------------------------------------------
    
    
    
    
    e|---------------------------------------------------
    B|---------------------------------------------------
    G|-10h-12-10-10h-12--10h-12-10-10h-12-10-12-10-10-10-
    D|---------------------------------------------------
    A|---------------------------------------------------
    E|---------------------------------------------------
    
    
    
    
    e|------------10--10-----------------------------------------
    B|-------------------12s-15-12s-15-15-15-13------------------
    G|------------------------------------------10s-12-10h-12-10-
    D|----------------------------------
  • +
    ¡Colabora con nosotros!
    Envíanos tu versión de esta canción

Letra de Bienaventurado
cuando te quieran llevar
por el camino del mal
no convengas no no no
sus argumentos tendran
para quererte desviar
mas no cedas
bienaventurado, como arbol plantado seras
cuando te quieran llevar
por el camino del mal
no convengas no no no
sus argumentos tendran
para quererte desviar
mas no cedas
bienaventurado, como arbol plantado seras
viviras como arbol junto al agua
que da su fruto a tiempo
y su hoja no cae
creceras plantado en la prescencia de Dios
y todo lo que emprendas
prospera fructificaras
y tu deleite hallaras
en su palabra de amor meditando
sus amndamientos sera
en tu camino una luz alumbrando
bienaventurado como arbol plantado seras.
en el final nadamas repites Dm - Dm7 las veces que quieras
y despues lo ultimo es F F G Dm
aja es todo le mando un saludo a Jan Carlos y a Julio
ah y tambien a los demas chavos del grupo de alabanza.
Animo muchachos hacedlo para el Señor. El quiere lo mejor.




[Bienaventurado chords][Bienaventurado cifra]
© LaCuerda.net · aviso legal · privacidad · es · en · pt · contacto