Acordes de Guitarra » J »Jesús Adrián Romero » Abba Padre (Tab)

Abba Padre
Jesús Adrián Romero

Letras, Acordes y Tabs para Guitarra, Bajo y Ukulele

  • Gm    Cm   D7   Gm
    Abba padre Abba padre
    Gm    Cm   D7   Gm
    Abba padre Abba padre
    Cm7        D7
    Abba padre soy tu hijo y vengo a ti
    
        Gm             Cm7  D7              Gm
    Me puedo acercar a ti y se que me vas a oir
        Gm              Cm7  F         D7    Gm
    Tu rostro puedo buscar y se que estaras alli
    Cm7                        D7           Gm
    Es que me amas tanto y te preocupas por mi
          Cm7                           D7
    Eres fiel a tu palabra tengo seguridad
    
    Coro:
        Gm             Cm7  D7              Gm
    Y caundo inseguro estoy hacia tu presencia voy
        Gm              Cm7  F         D7    Gm
    
  • Cm7(add4)                  Gm9
        Quiero estar en tu presencia
    
    E||-------------------------|
    A||-------------------------|
    D||-------------------------|
    G||-------------------------|
    B||-8-10---10----------8-8--|
    E||------8----7-8-9-10------|
    
    Cm7(add4)             Gm9
      Disfrutar de tu amistad
    
    E||----------------------------------|
    A||----------------------------------|
    D||----------------------------------|
    G||----------------------------------|
    B||----------------------------------|
    E||-13-13--11-11-11--10-10-10v8-8-8--|
    
    
  • esta es la tabletura de bajo de abba padre
    por.Erick Pelagio espero que le sea de vedicion.
    saludos para la Iglesia LUZ ADMIRABLE en Wiston salem NC.
    
    esta es la intro es igual que el coro
        Gm                           D7
    E--3-3---3-3-3----------------------------------------
    A---------------3s---12-------------------------------
    D------------------------10-11-12-12-12-12------------
    G-----------------------------------------------------
       Gm        Cm                  Gm   Bb     Eb
    E-3-3-----3-5------5-5-3-0-1-2-3---7----6----------------
    A-----1-3------6-5-------------------------7---6---------
    D-------------------------------------------------------
    G--------------------------------------------------------
      A7                  Gm        Cm          D7
    E-5--3--2-2-3----3--3-3-------3---------5--------5------
    A------------5-5--------3---3--3-3S----5-3-4-5----3-4-5-
    D-------------------------------------------------------
    G-------------------------------------------------------
    
    
  • Abba Padre
    
    Intro:
    
    C|----|x---------------|x---
    H|----|---x---x--x-x---|x---
    S|----|o--o---o----o---|----
    B|---x|o--o---o--o-o---|----    despues la intro del piano...
    
    Entra con este ritmo que para el coro siempre:
    
    C|x---------------|----------------|----------------|----------------|
    H|--x-x-x-x-x-x-x-|x-x-x-x-x-x-x-x-|x-x-x-x-x-x-x-x-|x-x-x-x-x-x-x-x-|
    S|--o----o--o-----|--o----o-------o|--o----o--o-----|--o----o-------o|
    B|o--o--o----o--o-|---o--o----o--o-|o--o--o----o--o-|---o--o----o--o-|
    
    C|x---------------|----------------|----------------|
    H|--x-x-x-x-x-x-x-|x-x-x-x-x-x-x-x-|x-x-x-x-x--xx---|
    S|--o----o--o-----|--o----o----o--o|--o----oo--oo---|
    B|o--o--o----o--o-|---o--o----o--o-|o--o--oo---oo---|
    
    El ritmo de las estrofas es este
    
    C|x---------------|----------------| Se repite este |-------x--------|
    H|xxxxxxxxxxxxxxxx|xxxxxxxxxxxxxxxx| ritmo hasta el |X-X--X-X--------|
    S|----------------|----------------| compas antes   |----------------|
    B|o--o-
  • Tono: Gm
    Intro Teclado:
    F/F6(a3#)  F/F6(a3#)
    
    F/F6(a3#)
    
    F#m(5#)/E°(5b)  F#m(5#)/E°(5b)
    
    POR TECLAS:
      A             ba            pa            dre
    D-G/G-A#   D-G-A#/G-A#   D-G-A#/G-A#   D#-G-A#-C/G-A#-C
    
       a                ba             pa             dre
    G-A-D/F#-C-D   G-A-C/F#-C-D    G-A-C/F#-C-D   D-G-A#/G-A#
    
       a            ba            pa              dre
    D-G/G-A#   D-G-A#/G-A#   D-G-A#/G-A#   D#-G-A#-C/G-A#-C
    
        a             ba               pa             dre
    G-A-D/F#-C-D   G-A-C/F#-C-D    G-A-C/F#-C-D   D-G-A#/G-A#
    
        a                 ba                     pa
    D#-G-A#-C/G-A#-C   D#-G-A#-D/G-A#-C   D#-G-A#-D/G-A#-C
    
            dre
    D#-G-A#-C/G-A#-C.
    
    Figura de Piano:
    
    C'C#'D  A'C'C#'D  A'C'C#'D   A'C'C#
    
    F-A#-D/F#-C  F-A#-D/F#-C   F-A#-D/F#-C  F-A#-D/F#-C
    
    Nota:
    El (°) significa que debes tocar la octava
    
                °
    C  F   A    C
    
    EL (/) signidica que es sobre la mano izquierda
    los acordes del lado derecho son los primeros y
    despues del guion / siguen los de la ma
  • +
    ¡Colabora con nosotros!
    Envíanos tu versión de esta canción

Letra de Abba Padre
Abba padre Abba padre
Abba padre Abba padre
Abba padre soy tu hijo y vengo a ti
Me puedo acercar a ti y se que me vas a oir
Tu rostro puedo buscar y se que estaras alli
Es que me amas tanto y te preocupas por mi
Eres fiel a tu palabra tengo seguridad
Y caundo inseguro estoy hacia tu presencia voy
En ti puedo descasar en ti puedo yo confiar
Es que me amas tanto y te preocupas por mi
Eres fiel a tu palabra tengo seguridad
Quiero estar en tu presencia
Disfrutar de tu a mistad
quiero encontrar en ti deleite
quiero conocerte mas
CENTRO CRISTIANO CONQUISTADOR TLAQUITENANGO




[Abba Padre chords][Abba Padre cifra]
© LaCuerda.net · aviso legal · privacidad · es · en · pt · contacto