Acordes de Guitarra » I »Ivan y Lucia » Alba (Tab)
  • Letra y Acordes
    RE MIm SOLm A7 RE  
    
    
    
    RE         MIm
    Para mi loca vida
    
    SOLm   A7   RE
    al medio día
    
    RE                MIm
    un día mas día que todos
    
    SOLm   A7   RE
    el sol regó la lluvia
    
    RE                  MIm
    y el alba al medio día
    
    SOLm   A7   RE
    
  • Letra y Acordes
    E |-------2-----0---------------2-----0----------------2-----0-----------
    B |----------------3---------------------3----------------------3--------
    G |----2----------------2----------------------1---------------------0---
    D |-0--------0-------0-------0-----0--------0-------0-----0-------0------
    A |----------------------------------------------------------------------
    E |----------------------------------------------------------------------
    Dedos  1  2         3    1      2       3     1       2      3         
    
    
    E ----2-----0-------------|
    B ----------------3-----3-|
    G ------------------------|
    D -0-----0-----0-----0----|
    A ------------------------|
    E ------------------------|
        1           3     3
    
    
    D          E       Gm     A7   D
    Para mi loca vida, al medio día,
    
  • +
    ¡Colabora con nosotros!
    Envíanos tu versión de esta canción

Letra de Alba
Para mi loca vida
al medio día
un día mas día que todos
el sol regó la lluvia
y el alba al medio día
aún era alba
más sutil que un minuto
transparente
y más minuto
que un océano eterno
cisterna donde
cabe mi ser entero

mar de rocío
que me acaricia incesante
patria peremne de mi corazón
jaula donde descansa
para siempre mi alma
Navío, vacía cueva

malandrán de mis sueños
gaveta donde guardo
todos mis pensamientos
cofre donde se esconde
mis sonrisa

donde moran mis ansias
y mis recuerdos
Alba norte, presente
norte eterno, carne mia
mi sombra, mi gemela
mi compañera loca, mi pulsera
mi mágico aposento
mi pequeño castillo donde habita el amor
Alba luz, alba sol, alba marina alba, día
alba siempre, alba del alma, alba hoy
alba sur, alba de junio, alba mora
alba esposa alba dormida
alba verso, alba única
alba mia


mi sombra, mi gemela
mi compañera loca, mi pulsera
mi mágico aposento
mi pequeño castillo donde habita el amor
donde habita el amor
donde habita el amor

Video de Alba
[]



© LaCuerda.net · aviso legal · privacidad · contacto