Acordes de Guitarra » I »Ismael Serrano » Vine del norte (Tab)

Vine del norte
Ismael Serrano

Letras, Acordes y Tabs para Guitarra, Bajo y Ukulele

  • Bm             Em      A                    D-D/C#
    vine del norte buscando una canción y una cruz
    Bm             Em      A                    D-D/C#
    y allí se cruzó un cometa y en su estela estabas tú
    Bm             Em      A                    D-D/C#
    en madrid seguiría lloviendo triste como lo dejé
    Bm             Em      A                        D-Dsus4-D
    y en santiago con tus luces y su noviembre me quemé
    
    
    Em                      D/F#      G              A
    y fue después de un concierto una noche en tu universidad
    Em              D/F#      G                A
    allí te encontré de nuevo hoy te invito a carretear
    Em                 D/F#  G              A
    acepto gustoso tu oferta sólo con una condición
    Em                  D/F#  G              A
    que no se acabe esta noche y que no me enamore yo
    
    
    
  • Bm    x24432
    Bm(9) x24422
    Em7   022030
    A     x02220
    Asus  x02230
    D     xx0232
    D/C#  x4023x
    D/F#  2x023x
    G(9)  3x020x
    Bm/A  x0443x
    G7M   3x443x
    
    ----------------------------------------------------------------------
    
    Bm(9)               Em7
    A)vine del norte buscando
    Asus               D   D/C#
    una canción y una cruz
    Bm(9)         Em7
    y allí se cruzó un cometa
    
  • B-:            x24432
    B-9:            x24422
    E-7:            022030
    A:            x02220
    Asus:            x02230
    D:            xx0232
    D/C#:            x4023x
    D/F#:            2x023x
    G9:            3x020x
    B-/A:            x0443x
    GΔ:            3x443x
    
    ----------------------------------------------------------------------
    
    Intro: (A)(B)
    
    B-(9)               E-7
    A)vine del norte buscando
    A(sus)             D   D/C#
    una canción y una cruz
    
  •     Bm              Em7              A                   D    D/C#
    |----------------|----------------|-----------------|----------------|
    |--------3-------|--------3-------|-------2^3-------|-------3--------|
    |------4---4---4-|------0---0---0-|-----2-----2---2-|-----2--------2-|
    |----4-------4---|----2-------2---|---2---------2---|---0--------0---| 3 Veces
    |--2-------------|----------------|-0---------------|----------0-----|
    |----------------|--0-------------1-----------------|----------------|
    
    
        Bm              Em7              A                   Dsus4
    |----------------|----------------|-----------------|--------0^3--0-----|
    |--------3-------|--------3-------|-------2^3-------|------3--------3---|
    |------4---4---4-|------0---0---0-|-----2-----2---2-|----2------------2-|
    |----4-------4---|----2-------2---|---2---------2---|--0----------------|
    |--2-------------|----------------|-0---------------|-------------------|
    |----------------|--0-------------|-----------------|-------------------|
    
    
       Em7              D/F#              G                 A
    |----------------|----------------|----------------|-----------------|
    
  •    SIm               MIm add9             LAM7                  RE     
    |----------------------------------0-----------------0-------------2------------2---|
    |------------3--2--------------3----------------2h3------------3-------------3------|
    |---------4----------------------------------0--------------2-------------2---------|
    |------4-------------------4--------------2--------------0--------------------------|
    |---2------------------2---------------0-------------------------------4------------|
    |-------------------0---------------------------------------------------------------|
    
    Antes del estribillo, en el ReM, como puente hace:
    
       RE 
    |------------2h3p2-----|
    |---------3------------|
    |------2---------------|
    |---0------------------|
    |----------------------|
    |----------------------|
    
         Estribillo:
    
    
  • +
    ¡Colabora con nosotros!
    Envíanos tu versión de esta canción

Letra de Vine del norte
vine del norte buscando una canción y una cruz
y allí se cruzó un cometa y en su estela estabas tú
en madrid seguiría lloviendo triste como lo dejé
y en santiago con tus luces y su noviembre me quemé
y fue después de un concierto una noche en tu universidad
allí te encontré de nuevo hoy te invito a carretear
acepto gustoso tu oferta sólo con una condición
que no se acabe esta noche y que no me enamore yo
andando por la alameda tú me empezaste a contar
causas azares y luchas en estos días y al pasar
por delante de la moneda tú tarareaste a jara
me miraste así tan duro tienes un aire a guevara
y entramos en un bareto y allí alguien cantaba a fito
a este paso me enamoro sólo me falta otro pisco
déjate de historias súbete ahí y cántame una de silvio
sólo si me das un beso y todos cantaron conmigo
salimos del bar borrachos agarrados de la mano
y en la calle como siempre jodiendo andaban los pacos
tú les gritaste asesinos y los dos echamos a correr
tu reías y en tu risa yo me veía caer
pero dónde has estado este tiempo se hace tarde vete a casa
y en tu abrazo a lo lejos creí oír a los parra
cantando para nosotros será mejor que me vaya
ahí quedé sólo gritando sin ti te recuerdo amanda
te recuerdo amanda
al tiempo llegué a mi norte con una canción y una cruz
con la estela de un cometa con tu mentira y con tu luz
en madrid seguía lloviendo tal como lo dejé
y en santiago tantas cosas hoy me muero por volver
hoy me muero por volver
Transcrito por Ariel Gonzalez (las Palmas) arigon@teleline.es




[Vine del norte chords][Vine del norte cifra]
© LaCuerda.net · aviso legal · privacidad · es · en · pt · contacto