Acordes de Guitarra » I »Ismael Serrano » Recuerdo (Tab)
  • Letra y Acordes
    Intro:  (D-Dsus4-Asus2/C#)-(A/B-Asus4/B)--G-A9-(Dsus2/F#-A/F#)--G
    
    
    D-Dsus4        Asus2/C#      A/B - Asus4/B - A/B
    Me levanto temprano moribundo
    G              A9   Dsus2/F#        G
    perezoso resucito bienvenido al mundo
                    A9        Dsus2/F#        G
    con noticias asesinas me tomo el desayuno
    
    
    D-Dsus4         Asus2/C#   A/B - Asus4/B - A/B
    camino del trabajo en el metro
    G            A9            Dsus2/F#      G
    aburrido vigilo las caras de los viajeros
                   A9      Dsus2/F#          G
    compañeros en la rutina y en los bostezos
    
    
    
    
  • Letra y Acordes
    Intro:  D--D9/C#--Bm9--G--A--D9/F#--G
    
    D           D9/C#        Bm9    G              A   D9/F#             G
    Me levanto temprano moribundo     perezoso resucito bienvenido al mundo
    G                A       D/F#          G   
    con noticias asesinas me tomo el desayuno   
    
    D...
    camino del trabajo en el metro   
    aburrido vigilo las caras de los viajeros   
    compañeros en la rutina y en los bostezos   
    
    
    Bm                               F#m
    y en el asiento de enfrente   un rostro de repente   
    G                  A
    claro ilumina el vagón   
    Bm                          F#m
    esos gestos traen recuerdos de otros paisajes otros tiempos   
              G           F#m         G
    
  • Letra y Acordes
    D                 A         Bm
    Me levanto temprano, moribundo.
    A7sus4     A       F#m           A7sus4
    Perezoso resucito, bienvenido al mundo.
                     A         F#m            A7sus4
    Con noticias asesinas me tomo el desayuno.
    
    D                A            Bm
    Camino del trabajo, en el metro,
                A             F#m        A7sus4
    aburrido vigilo las caras de los viajeros,
                   A        F#m      A7sus4
    compañeros en la rutina y en los bostezos.
    
       Bm
    Y en el asiento de enfrente, 
         F#m
    un rostro de repente,
     A7sus4               A
    claro ilumina el vagón.
    
  • Tablatura
    E|--------2-3-2-----------------0---------0-------------|
    B|---------------3-----------2---------2-----3--2-------|
    G|-----2------------2-----0------------------------2--4-|
    D|--0---------------------------------------------------|
    A|---------------------4------------2-------------------|
    E|------------------------------------------------------|
    
          II
    E|------------0--------------0----------------------------------------------------|
    B|---------3--------------0--------------3--2--0--------0---------0--------0----*-|
    G|------2---------------2-------------2--------------2---------2--------2-----2---|
    D|---0---------------2-------------0--------------0--------0---------0------------|
    A|----------------0-------------------------------------------------------------*-|
    E|-3----------------------------2--------------3----------------------------------|
    
    I y II (dos veces)
    
    Me levanto temprano, moribundo,
    perezoso resucito, bienvenido al mundo
    con noticias asesinas me tomo el desayuno.
    
  • Tablatura
    Tercera Colaboracion para Atame.org y otra vez de Ismael Serrano, en mi linea :P
    Esta version de 'Recuerdo' es del directo de 'Principio de Incertidumbre'.
    Sacada tambien a base de ver y ver y ver y ver el DVD. A ver si os gusta.
    
    Si veis algun fallo o mejora mandarmela al correo.
    
    
    Sin Cejilla
    
    
     ||---------2-3-2-----------------0-----------0---------------------0------------0--|
     ||-------3-------3-----------2-3-----------2---3---2---0---------3------------0----|
     ||-----2-----------2-------0-------------2-----|-2---2---------2------------6------|
     ||---0-------------------0-------------0-------|-------------0------------7--------|
     ||---------------------4-------------2---------2-----------------------------------|
     ||---------------------------------------------------------3----------0-5----------|
    
    
     ||---------------------------------------------------------------------------------|
     ||-----------3-2---------0-----0-----0----------------------------------------
  • +
    ¡Colabora con nosotros!
    Envíanos tu versión de esta canción

Letra de Recuerdo
Me levanto temprano moribundo  perezoso resucito bienvenido al mundo
con noticias asesinas me tomo el desayuno  
camino del trabajo en el metro  
aburrido vigilo las caras de los viajeros  
compañeros en la rutina y en los bostezos  
y en el asiento de enfrente   un rostro de repente  
claro ilumina el vagón  
esos gestos traen recuerdos de otros paisajes otros tiempos  
en los que una suerte mejor me conoció  
no me atrevo a decir nada no estoy seguro  
aunque esos ojos sin duda son los tuyos  
más cargados de nostalgia quizás más oscuros  
pero creo que eres tú y estás casi igual  
tan hermosa como entonces quizás más  
sigues pareciendo la chica más triste de la ciudad  
cuanto tiempo ha pasado desde los primeros errores  
del interrogante en tu mirada  
la ciudad gritaba maldecía nuestros nombres  
jóvenes promesas no no teníamos nada  
dejando en los portales los ecos de tus susurros  
buscando cualquier rincón sin luz  
agárrate de mi mano tengo miedo del futuro  
y detrás de cada huída estabas tú estabas tú  
en las noches vacías en que regreso  
de haberte arrojado tan lejos de mi cuerpo  
y ahora que te encuentro veo que aún arde  
la llama que encendiste nunca nunca es tarde  
para nacer de nuevo para amarte  
debo decirte algo antes de que te bajes  
de este sucio vagón y quede muerto  
mirarte a los ojos y tal vez recordarte  
que antes de rendirnos fuimos eternos  
me levanto decidido y me acerco a tí  
y algo en mi pecho se tensa y se rompe  
cómo estás cuánto tiempo te acuerdas de mí  
y una sonrisa tímida responde  
perdone pero creo que se ha equivocado  
disculpe señorita me recuerda tanto  
a una mujer que conocí hace ya algunos años  
más viejo más cansado vuelvo a mi asiento  
aburrido vigilo las caras de los viajeros  
compañeros en la rutina y en los bostezos  
Trancrito por Ariel Gonzalez [arigon@teleline.es]
Agosto 1999--Las Palmas



© LaCuerda.net · aviso legal · privacidad · contacto