Acordes de Guitarra » I »Ismael Serrano » Amo tanto la vida (Tab)

Amo tanto la vida
Ismael Serrano

Letras, Acordes y Tabs para Guitarra, Bajo y Ukulele

  • Cm  G/B Bb Ab7/A G# Cm/A# F/A  G  C  E/G# Am Am7 Em Em7  F
    |--3---3---1---0---4---3-----x---3--0---0---0---3---0--0---1--|
    |--4---3---3---1---4---4-----1---0--1---0---1---1---0--3---1--|
    |--5---0---3---0---5---3-----2---0--0---1---2---0---0--0---2--|
    |--5---0---3---1---6---5-----3---0--2---2---2---2---2--0---3--|
    |--3---2---1---x---6---x-----0---2--3---2---0---0---2--2---3--|
    |--x---x---x---x---4---6-----x---3--x---4---x---x---0--0---1--|
    
    
    
    Cm                     G/B   Bb               Ab7/A
    Amo tanto amo tanto la vida,   que de ti me enamoré
    G#                   Cm  Cm/A#  F/A                 G
    y ahora espero impaciente,      ver contigo amanecer.
    Cm                     G/B   Bb               Ab7/A
    Si se acaba este milagro, si se consume mi voz,
    G#                   Cm  Cm/A#  F/A                 G
    si me das un último portazo, en qué calle moriré yo.
    
    
    
  • Cm    x35543
    G*    x2543x
    Bb*   x1303x
    F*    xx3213
    G#    355433
    Cm/A# 6x5343
    F/A   5x356x
    G**   3x344x
    G7*   3x343x
    Am9   x02410
    Em9   024030
    
    todos los que tiene asterisco es porque no me se el nombre, la neta,
    Las demas notas son C, F, E7 y G en cejilla y sin cejilla
    
    Nota: el arpegio comunmente es de las cuerdas 4,3,2, obiamnete el bajo
    es en la 5 o 6 segun corresponda, los bajeos suelen repetirse alrededor
    de 4 veces en cada nota, con ecepcion del coro, hay se hace mas juego con
    las cuerdas de abajo.
    
    
  •  Cm                   Bm+5    B7                  F9
    Amo tanto, tanto la vida,     que de ti me enamoré,
    A                         Cm       F            G
      y ahora espero impaciente ver contigo amanecer.
    Cm                   Bm+5  B7                   F9
    Si se acaba este milagro,   si se consume mi voz,
    A                         Cm   Cm7     F                   G
      si me das un último portazo,     ¿en qué calle moriré yo?
    
    C                       G                        Am           Em
    Estás tan bonita esta noche, te sienta el pelo recogido tan bien.
    F                       C   F                     G
      Pídeme cualquier deseo,   poco te puedo ofrecer.
     C                         G           Am          Em
    Lloras, gritas bajo la lluvia, como el ángel Lucifer.
    F                            C   F                   G
      Somos de nuevo herida abierta,  mala tierra trágame.
    
    
    Trágame.
    
  • AMO TANTO LA VIDA
    Ismael Serrano
    
    Hola a todos. Esta es la primera tablatura que hago para Átame,
    la he sacado del directo de Principio de Incertidumbre. Está
    tal y como la toca el propio Ismael así que espero que la disfruten.
    
    Va dedicada a la mujer de mis sueños,
    a la que amo tanto como a la vida.
    
    
    1e----------------------------------------------------------3-------
    2B--------4---------------3---------------3---------------1---1---1-
    3G------5---5---5-------4---4---4-------0---0---0-------2-------2---
    4D----5-------5-------5-------5-------3-------3---------------------
    5A--3---------------5---------------1---------------3---------------
    6E------------------------------------------------------------------
    
      Amo tanto, tanto la vida...
    
    
    1e----------------------------0--------------0----------------------
    2B--------4---------------3p4---4--------3p4---4----------6---------
    3G------5---5---5-------5--------------3----------------5---5---5---
    4D----6-------5-------5--------------5
  • +
    ¡Colabora con nosotros!
    Envíanos tu versión de esta canción

Letra de Amo tanto la vida
Amo tanto amo tanto la vida, que de ti me enamoré
y ahora espero impaciente, ver contigo amanecer.
Si se acaba este milagro, si se consume mi voz,
si me das un último portazo, en qué calle moriré yo.
Estás tan bonita esta noche, te sienta el pelo recogido tan bien,
pídeme cualquier deseo, poco te puedo ofrecer.
Lloras, gritas, bajo la lluvia, como el ángel lucifer,
somos de nuevo herida abierta, mala tierra trágame, trágame.....
Amo tanto, amo tanto la vida, que de ti me enamoré,
y de amarte tanto tanto, puede que no te ame bien.
Si yo fuera tu asesino conmigo nunca tendría clemencia,
y me condenaría a muerte, que es condenarme a tu ausencia.
Que no haya mas despedidas, que no eres Ilsa Lazlo, ni yo Rick Blaine,
ni soy tan idiota, no te dejaría ir con él.
El próximo avión que tomes conmigo lo tendrás que hacer,
y el camino de regreso yo te lo recordaré, yo te lo recordaré....
Transcrito por Ariel González
arielg@terra.es
(antes Ariel González -arigon@teleline.es)




[Amo tanto la vida chords][Amo tanto la vida cifra]
© LaCuerda.net · aviso legal · privacidad · es · en · pt · contacto