Acordes de Guitarra » I »Invisible » Elementales Leches (Tab)

Elementales Leches
Invisible

Letras, Acordes y Tabs para Guitarra, Bajo y Ukulele

  •        Fmaj7/#11
    
     Dm7          G7    Am7
      Curvas del aire, son
        C#°        Dm7/9       G             Cmaj7
      Puertas del blanco barco lento de las horas
       Dm7     Fmaj7/#11
      Desveló.
    
    
    
      Hijos amigos, muerden, 
    
      Aquellas hojas de sus pies y elementales
    
      Leches.
    
    
      (con riff)
    
    
  • Fmaj7/#11
    
    Dm7        Em7   Cmaj7
    Curvas del aire, son
    Gdim/C#     Dm11         G/B          Em/C
    Puertas del blanco barco lento de las horas
    G/D - Gsus4/D - G/D
    Desveló.
    
    Fmaj7/#11
    
    Dm7    Em7    Cmaj7
    Hijos amigos, muerden,
    Gdim/C#  Dm11         G/B          Em/C
    Aquellas hojas de sus pies y elementales
    G/D - Gsus4/D - G/D
    Leches.
    
    Fmaj7/#11
    
    
  • Otro temazo del primer disco de Invisible. No es tan difícil,
    fíjense que repite el bajo las partes del verso,
    el resto no es complicado. Quedo larga
    porque le puse la letra para que se guíen bien.
    
    G|---------------
    D|------10---10--
    A|-8-888---8--(0)
    E|---------------
    
        “…Curvas del aire…          …puertas del blanco…
    G|-------------------------------------------
    D|------3-4-5--5-5--55-5-5/7-----------------
    A|5--5-5--------------------0--0-0-3-4-5--5-5
    E|-------------------------------------------
                       …horas del reloj…
    G|--------------------------------------7--7-----|
    D|-3-4-5--5----------------5----------7----------|
    A|----------3/5---5--3-3-3---3-0-5--5--------5-0-|
    E|-------------3---------------------------------|
    
    G|---------------
    D|------10---10--
    A|-8-888---8--(0)
    E|---------------
    
    (Acá repite el lo que hace en el verso)
        …hijos amigos…             …aquellas hojas…
    G|-------------------------------------------
    D|------3-4-5--5-5--55-5-5/
  • Intro
    
    G|---5------|
    D|-3---0----|
    A|-------0--|
    E|----------|
    
    "Curvas del aire.......,son"  (Verso)            ...Desveló"
    
    G|----------------------------------------------------------7---|
    D|------3-4-5-555-6-7------------3-4-5---5---5------5-----7---0-|
    A|-5-5-------------------4-5-555-------5---5---3-33---3-5-------|
    E|---------------------5----------------------------------------|
    
    Repite lo de arriba 2 veces
    
    G|---5------|
    D|-3---0----|
    A|-------0--|
    E|----------|
    
    
    "Lo que está y no se usa..." (Riff)
    
    G|-----------------------|
    D|-------0-3---2---------|
    A|-0-0-0-----3---0-------|
    E|-----------------2-3-1-| x2
    
    Repite Verso y Riff
    
    "La totalidad de tu cuerpo..."
    
    G|-----11-------11-----9---------|
    D|-9-9----9-8-8----8-7---7-8-9---|
    A|-----------------------------7-|
    E|-------------------------------|
    
    "La semilla crece..."
    
    G|--------------------|
    D|-----------7-6------|
    A|-6-4---4-7-----0----|
    E|-----5-----------0--|
    
    "Son sangres..."         ...y cuerpos en colores"
    
    G|----
  • +
    ¡Colabora con nosotros!
    Envíanos tu versión de esta canción

Letra de Elementales Leches
Curvas del aire, son
Puertas del blanco barco lento de las horas
Desveló.
Hijos amigos, muerden,
Aquellas hojas de sus pies y elementales
Leches.
(con riff)
Lo que está y no se usa nos fulminará,
Lo que está y no se usa nos fulminará.
Siempre despacio, sueñan,
Las humaredas que descansan en la luna,
Calman.
Hijos amigos, vengan
Suyo en el fruto que olvidaron en el árbol,
Miedo.
(con riff)
Lo que está y no se usa nos fulminará,
Lo que está y no se usa nos fulminará.
La totalidad de su cuerpo eterno no es maldad
La semilla crece donde el sol la deposita
Y ven, los vientos en retorno,
Son sangres marginales,
Y cuerpos en colores.
Hijos amigos, muerden...
Riff:
Fmaj7/#11




[Elementales Leches chords][Elementales Leches cifra]
© LaCuerda.net · aviso legal · privacidad · es · en · pt · contacto