Acordes de Guitarra » I »Los Invasores De Nuevo León » Distancia Maldita (Tab)

Distancia Maldita
Los Invasores De Nuevo León

Letras, Acordes y Tabs para Guitarra, Bajo y Ukulele

  •             A       E7   A            A7
    e-----------0---0---2-0-----|-------|---------------2-2---------|
    b-----------2---2---3-2-----|-------|-2-5-5-5-5-5-5-----5-3-2-3-|
    g-----1-2-4---4---4-----4-2-|-2-1-0-|---------------------------|
    d-2-4-----------------------|-------|---------------------------|
    a---------------------------|-------|---------------------------|
    e---------------------------|-------|---------------------------|
    
      E7              A   F#7       Bm              A
    e-7---------5-4-2-0-|---------4-2-0---|-4-2-0-------------|
    b-9-7-9-7-9-7-5-3-2-|-5-7-5-7-5-3-2-3-|-5-3-2-3-2-2-2-2-2-|
    g-------------------|---------------4-|-------4-2-2-2-2-2-|
    d-------------------|-----------------|-------------------|
    a-------------------|-----------------|-------------------|
    e-------------------|-----------------|-------------------|
    
                            A
    e-------------|-------|-5--
    b-------------|-------|-5--
    g-------------|-------|-6--
    
  • +
    ¡Colabora con nosotros!
    Envíanos tu versión de esta canción

Letra de Distancia Maldita
Luchando con un gran dolor
Que aquí en mi corazón
Muy dentro llevo.
Sufriendo una agonía siempre voy
Por culpa del amor
Que yo te tengo.
Quisiera retractarme en mi decir
Quisiera yo gritarte que no es cierto
Que vivo muy contento y muy feliz
Pero eso no es verdad
Sin ti me estoy muriendo.
Distancia maldita,
Como no te acortas y me dejas verla
Distancia maldita
Como no me llevas para morir con ella
Mi vida casi llega a su final
Mis ojos ya se cierran con el llanto
Mis manos ya comienzan a temblar
Y esta cruel soledad
sin ti me esta matando
-entra solo similar a entrada-
Distancia maldita,
Como no te acortas y me dejas verla
Distancia maldita
Como no me llevas para morir con ella
Mi vida casi llega a su final
Mis ojos ya se cierran con el llanto
Mis manos ya comienzan a temblar
Y esta cruel soledad
sin ti me esta matando
-salida-




[Distancia Maldita chords][Distancia Maldita cifra]
© LaCuerda.net · aviso legal · privacidad · es · en · pt · contacto
DINAMICO