Acordes de Guitarra » I »El Inspector » Cara de chango (Tab)

Cara de chango
El Inspector

  • Letra y Acordes
    B-E-B-E
    
             B           E
    En las tardes de verano
                B         E
    cuando arrecia el calor 
           B                E
    me imagino aqui en la playa 
          B                E
    bajo los rayos de el sol  
    B              E
    viendo los bikinis 
             B             E
    junto a las olas del mar
       B              E
    lo ultimo que quiero 
           B              E
    es volverte a encontrar
             Fsost7        E
    te digo ya no quiero ver 
    
  • Tab p/Bajo
    Este bajeo esta bien padre. 
    
    Intro
    
    E--------------------
    A--2-2-2-2s9s2-------
    D-------------------- X 8
    G-----------------
    	
    E-------------------    --------------------
    A--2-2-2-2-2-2-2-2--    ---2-2---2----------
    D------------------2    -------2---2--------
    G----------------   -----------------
    
    
    Verso
    
    E----------------------------
    A---2-2----------------------
    D--------4--2-2--------------
    G-------------1-2-2-1---
    
    En algunas partes del verso se escucha esto
    
    E---------------
    A--2-2----------
    D-------4-3-2-1-
    G---------------------------
    
    Ya no quiero ver......
    E----------------------
    A--2-2-2-2-2-2-2-------
    D-----------------2----
    G---------------------------------
    
    Esta es la parte donde sale el solo de teclado y canta:
    Shiquiten...........
    
    E------------------------
    A--2-2-------------------
    D-------4-3-2-2----------
    G-----------------------1-2-2-1---
    
    Al final del puente lleva este arreglo:
    
    E---------------------
    A----2---------
  • +
    ¡Colabora con nosotros!
    Envíanos tu versión de esta canción

Letra de Cara de chango
En las tardes de verano
cuando arrecia el calor
me imagino aqui en la playa
bajo los rayos de el sol
viendo los bikinis
junto a las olas del mar
lo ultimo que quiero
es volverte a encontrar
te digo ya no quiero ver
tu cara de chango.
Y si salgo yo con alguien
de manera formal
que vamos al cine
despues algun bar
tras unas cervezas
me diga que si
lo ultimo que quiero
es saber algo de ti
te digo ya no quiero ver
tu cara de chango.
(esta parte va igual que todo lo de antes)
Estando en una fiesta
o metido en la red
entiendeme nikima
que yo no te quiero ver
ya no me llames y me cuelges
te pido por favor
que lo ultimo que quiero
es algo entre los dos
te digo ya no quiero ver
tu cara de chango.
Tu simesca, orangutana
gorilesca, mono araña
mandrilesca o de macaco
aunque sea en un retrato
de mico y chimpance
entre nosotros no va a ser
escucha lo que digo
eslabon perdido
te digo ya no quiero ver
tu cara de chango.
'PUES AQUI ESTA AMIGOS CUALQUIER COSA O COMENTARIO AHÍ APARESE
MI MAIL AH Y UN SALUDO A LIZZETH'



© LaCuerda.net · aviso legal · privacidad · contacto