Acordes de Guitarra » I »El Inspector » Amargo Adios (Tab)

Amargo Adios
El Inspector

Letras, Acordes y Tabs para Guitarra, Bajo y Ukulele

  • e--------------------------------------------------------I
    B--------------------------------------------------------I
    G---------------------2-0--------------------------------I
    D------5-3-2-------0------3-2----3-2--0----0----0-2-3-2--I
    A--5----------5--------------------------3----3----------I
    E--------------------------------------------------------I
    
    e--------------------I
    B--------------------I
    G-----------------7--I
    D-----------3--5-----I
    A--5-3--5------------I
    E--------------------I
    
    
    Entran las trompetas acompañadas de:
     Dm   C   Gm   C   Dm  y se pausa
    
              Dm
    Se que es tarde ya
    
  • E|-----------|-----------|--------------------------|-------------------|
    B|-----------|-----------|--------------------------|-------------------|
    G|-----------|-----------|--------------------------|---------7---------|
    D|---7-5-3---|---7-5-----|--------------------------|-----7/5-----------|
    A|-5-------5-|-5-----5-7-|-8-7-5-3-5-3-5-7-8-7-5-3-5|-7/8---------------|
    E|-----------|-----------|--------------------------|-------------------|
    
    
    Intro: Dm C Gm C Dm(X2)
    
                    Dm             C
    Se que es tarde ya para pedir perdón
              Gm             C                      Dm
    Se que es tarde ya y lo siento termina nuestro amor
    
           Dm                         C
    Si ya nada funciona contigo y el intento no va más allá
           Gm                C                   Dm
    No me pidas dale tiempo al tiempo no puedo esperar
           Dm                            C
    
  • Dm-C-Gm-C-Dm X2
    
                    Dm
    Se que es tarde ya
                   C
    para pedir perdón,
              Gm            C
    se que es tarde ya y lo siento
                    Dm
    termina nuestro amor.
    
          Dm
    Si ya nada funciona contigo
          C
    el intento no va mas allá
          Gm                     C
    no me pidas darle tiempo al tiempo
                  Dm
    no puedo esperar
    
    
  •      Dm
    e-----------I
    B-----------I
    G-----------I
    D---7-5-----I
    A-5-----8-5-I
    E-----------I
    
         C
    e-----------I
    B-----------I
    G-----------I
    D---7-5-----I
    A-5-----5-7-I
    E-----------I
    
         Bb          C              Dm
    e-----------------------------------------I
    B-----------------------------------------I
    G-------------------------------3h-5h5/7~-I
    
  •        E  A  D  G  B  E
     Dm    0  0  0  2  3  1
     C     0  3  2  0  1  0
     Bb    1  1  3  3  3  1
     F     1  3  3  2  1  1
     Am    0  0  2  2  1  0
     A     0  0  3  3  3  0
    
    Intro
    
       Dm            C             Bb              C          Dm
    E -----------------------------------------------------------------
    A 5----8-5-----5---5-7----8-7-5-3-5-3-5-7-8-7-5-3-5-3-5-7-9-11-13--
    D -7-5----------7-5------------------------------------------------
    G -----------------------------------------------------------------
    B -----------------------------------------------------------------
    e -----------------------------------------------------------------
    
    Esta es la parte de las trompetas:
       Dm           C               Bb       C          Dm
    
  •             Dm          C       A#               Dm
    e|--------------------------------------------------------------------|
    B|-----------------------------------------------------------------3--|
    G|---------------------------------------------------------------2----|
    D|----7-5----------7-5---------------------------------------0-3------|
    A|--5-----8--5---5-----5--7-----8-7-5----5---5-7-8-7~~5-8-5-----------|
    E|-------------------------------------8---8--------------------------|
    
    INTRO 2:
               Dm        C           A#         C        Dm
    E|----5-3---3h5---5-3---1-0-1p0--1-0---------------------------|
    B|--3-----3-----3-----3--------------3-1-3-1-3-5-6-5-3/1-1/3---|
    G|-------------------------------------------------------------|
    D|-------------------------------------------------------------|
    A|-------------------------------------------------------------|
    E|-------------------------------------------------------------|
    
               Dm        C                A#         C      Dm
    E|----5-3---3h5---5-3---1-0-1-3-1-0-0-1-0----------------------------3-5-|
    B|--3-----3-----3-----3-------------------3-1-3-1-3-5-6-5-3-1/3----3-----|
    
  • que tal
    este bajeo esta bien chido y va para toda la raza que
    le gusta esta banda.
    
    *esto es un ligado
    
    intro (al mero principio donde utilizan una guitarra)
    E-------------5-5---------------------------------------
    A--------5-5-------5*0-----3-3-3-3---------3---3--------
    D-----------------------------------5---5----5---5------
    G-------------------------------------5-----------------
    
    --3-3---------------------5-5-----------------------
    ------5-5----3-3------3*5-----5*0-------------------
    -----------------5-5--------------------------------
    ----------------------------------------------------
    
    estrofas
    E---------------------------------------------3-3------------
    A--5-5---8-7-5--5-5-8-7--5*3--3-------3---3-3-----5-5-3-3----
    D------7------------------------5---5---5--5--------------5-5
    G---------------------------------5--------------------------
    
    -------------------------
    --3*5-5----8-7-5---------     y esto se repite durante
    ---------7--------7-8-7-8     las es
  • AMARGO ADIÓS   -    INSPECTOR
    
    BUENO ESTA ES MI PRIMERA TRANSCRIPCION ESPERO Y LES GUSTE, Y ESPERO DESPUES MANDAR MAS PARA TECLADO
    
    NESTOR ISRAEL RODRÍGUEZ SAUCEDO  SAN LUIS POTOSI
    
    INTRO:
    SOL FA, SOL DO SI SOL LA, LA SOL FA MI FA MI FA SOL LA SOOL FA MI RE, FA MI RE.
    LA RE DO LA DO RE, LA RE DO LA SOL, LA SOL, LA SOL FA MI FA MI FA SOL LA SOOL FA MI RE, FA MI RE.
    LA RE DO LA DO RE, LA RE DO LA SOL FAA LA SOL, LA SOL FA MI FA MI FA SOL LA SOOL FA MI RE, FA MI RE.
    
    
    SE QUE ES TARDE  YA,   PARA   PEDIR    PERDOON,  SE QUE ES 
    LA   RE   RE DO  RE    LA DO  RE MI  FA  MI RE DO, FA   MI
    
    TARDE  YA Y LO SIENTO, TERMINA NUESTRO AMOR. SI YA NADA 
    RE DO  RE  DO   RE DO  RERERE  RE   DO  RE   LA DO RE RE
    
    FUNCIONA CONTIGO,  EL  INTENTO   NO VA MAS ALLÁ,  NO ME 
    RE RE RE RE RE RE, FA  MI DO DO  DO FA FA  MI DO  FA MI
    
    PIDAS  DALE  TIEMPO AL TIEMPO NO PUEDO ESPERAR. SI LA 
    RE RE RE FA  FA    MI   A MI  FA FA FA  MI  RE  LA DO
    
    CULPA FUE  TUYA O FUE MIA,  EL SABERLO YA NO
  • INTRO:
    
    SOL FA, SOL DO SI SOL LA, 
    LA SOL FA MI FA MI FA SOL LA SOOL FA MI RE, FA MI RE.
    
    LA RE DO LA DO RE, LA RE DO LA SOL, LA SOL, 
    LA SOL FA MI FA MI FA SOL LA SOOL FA MI RE, 
    FA MI RE.
    
    LA RE DO LA DO RE, LA RE DO LA SOL FAA LA SOL, 
    LA SOL FA MI FA MI FA SOL LA SOOL FA MI RE, FA MI RE.
    
    
            Dm                    C
    SE QUE ES TARDE  YA,   PARA   PEDIR    PERDOON,  SE QUE ES 
    LA   RE   RE DO  RE    LA DO  RE MI  FA  MI RE DO, FA  MI
    
    Gm	                         Dm                Dm
    TARDE  YA Y LO SIENTO, TERMINA NUESTRO AMOR. SI YA NADA 
    RE DO  RE  DO   RE DO  RERERE  RE   DO  RE   LA DO RE RE
    
    	                 C
    FUNCIONA CONTIGO,  EL  INTENTO   NO VA MAS ALLÁ,  NO ME 
    RE RE RE RE RE RE, FA  MI DO DO  DO FA FA  MI DO  FA MI
    
    Gm                  C                    Dm
    PIDAS  DALE  TIEMPO AL TIEMPO NO PUEDO ESPERAR. SI LA 
    RE RE RE FA  FA    MI   A MI  FA FA FA  MI  RE  LA DO
    
    Dm                             C
    CULPA FUE  TUYA O FUE MIA,  EL SABERLO
  • +
    ¡Colabora con nosotros!
    Envíanos tu versión de esta canción
  • Tutorial
    HD
    Como tocar Amargo Adiós en Guitarra
    7:55
  • Tutorial
    HD
    Como Tocar Amargo Adiós El Inspector
    8:33
  • Tutorial
    Como tocar Amargo Adiós en Guitarra - Guitarra Amateur
    6:13

Letra de Amargo Adios
Se que es tarde ya para pedir perdón
Se que es tarde ya y lo siento termina nuestro amor
Si ya nada funciona contigo y el intento no va más allá
No me pidas dale tiempo al tiempo no puedo esperar
Si la culpa fue tuya o fue mía y el saberlo ya no servirá
No me pidas que sea tu amigo te aseguro no funcionará
Diferencia entre novio y amigo cuanto tiempo puede funcionar
Y con vodka pretendo olvidarte mis amigos y esta canción
Por que se, que siempre, que siempre es amargo el adiós.
(En los ultimos acordes que son: F, Am, C, Am, Bb, es un
rasgueo en cada uno d ellos)
se repite el inicio otra vez.. dspues el coro y al final va esto
Se que es tarde ya para pedir perdón
Se que es tarde ya y lo siento termina nuestro amor
Se que es tarde ya y lo siento termina nuestro amor
Se que es tarde ya y lo siento amargo es el adiós..FIN
bueno pues ahi ta la cancion... ta muy padre..,.
bueno pues es la primix que subo!!!... salu2.. y le doy gracias
a mi niña!!
... toquenla chido!!




[Amargo Adios chords][Amargo Adios cifra]
© LaCuerda.net · aviso legal · privacidad · es · en · pt · contacto