Acordes de Guitarra » I »Inmigrantes » Babilonia (Tab)

Babilonia
Inmigrantes

Letras, Acordes y Tabs para Guitarra, Bajo y Ukulele

  • E |------------------------9----------------8---------8-8-8-8---------1-
    B |9999999-----------------7----------------7---------7-7-7-7---------4-
    G |9999999-----------------8----------------8---------8-8-8-8---------3-
    D |7777777----------7-7-7---------10--10------10-10--------------3-3-3--
    A |8888888 4x ---------0---- 2x -7--7---7----7--7--7--------------------
    E |7777777--------5--5------------------------------------------1-1-1---
    
    E |-------10101010--------------------------------------------
    B |-------10101010--------------------------------------------
    G |-------10101010---------------------------------------------
    D |-3-3-3------------------------------------------------------
    A |------------------------------------------------------------
    E |1-1-1-----------------------0-1-3-1-0-- 2x ------------------
    
    
    
    
    
    
    A
    
  • +
    ¡Colabora con nosotros!
    Envíanos tu versión de esta canción

Letra de Babilonia
Esta vez
nuestro viaje
va a ser eterno
paraíso en la mente
y el cuerpo en el infierno
Quiero ver
tu sonrisa
de barrio bajo
quiero ver
en tus ojos
tu lado suburbano
Hoy
Soy de la generación
corto clavos con mi dios
irónico
babilónico
soy de la generación
nuestro tango
y nuestro amor
mirándonos
Quiero estar
en tus calles
por un segundo
recordar carnavales
soplar el humo que nubló tu mundo
Soy de la generación
corto clavos con mi dios
irónico
babilónico
soy de la generación
nuestro tango
y nuestro amor
mirándonos
Soy de la generación
inmigrante el corazón
irónico
babilónico
soy de la generación
hoy me quedo en libertad
Te digo adiós
Me voy de vos
Sin más que amor.




[Babilonia chords][Babilonia cifra]
© LaCuerda.net · aviso legal · privacidad · es · en · pt · contacto
DINAMICO