Acordes de Guitarra » I »Inmigrantes » Graffiti (Tab)

Graffiti
Inmigrantes

Letras, Acordes y Tabs para Guitarra, Bajo y Ukulele

  • MI 3ra transcripcion!
    Esta es una rola de un grupo nuevo con temas bastante intersantes
    y pues vi que esta estaba bastante solicitada y siendo que es
    MUY BUENA rola y no est atan dificil me puse a sacarla
    
    usen cejilla en (A) pero en (E) no jeje para que se escuche mejor!
    
    bueno ahi les va, sin dedicación jaja
    
       C#m
    Si hay infierno para mi
      G#m
    y hay infierno para vos
        F#m        G#m        C#m
    que nada nos separe por favor
    
    C#m
    Todo el tiempo que perdí
    G#m
    no lo voy a repetir
    
  • Intro      C#m G#m F#m G#m C#m
    
    C#m
    Si hay infierno para mí,
      G#m
    y hay infierno para vos,
        F#m        G#m        C#m
    que nada nos separe por favor.
    
    Todo el tiempo que perdí,
    no lo voy a repetir,
    no quiero ser igual a lo que fui.
    
    PRE
    (un rasgueo)
    F#m         C#m
    No miro más, televisión,
           B         F#m7
    no hay nada para ver,
    (normal)
    
  •     Gm                                         B6
    E||--4--x--4--x--4--x--|--4-4-4-4-4---------|--4--x--4--x--|
    B||--5--x--5--x--5--x--|--5-5-5-5-5---------|--4--x--4--x--|
    G||--6--x--6--x--6--x--|--6-6-6-6-6---------|--4--x--4--x--|
    D||--6--x--6--x--6--x--|--6-6-6-6-6---------|--6--x--6--x--|
    A||--------------------|--------------------|--------------|
    E||--------------------|--------------------|--------------|
    
    
    
       D#sus4/5+
    E||--7--7--7--7--7--|
    B||--4--4--4--4--4--|
    G||--4--4--4--4--4--|
    D||--6--6--6--6--6--|
    A||-----------------|
    E||-----------------|
    
    
    
    
  • Bueno pss, esta cancion tiene una gran melodia, me encanta
    aki les dejo las tabs
    
    
    G|-----------------------------------------------------|
    D|-----------------------------------------------------|
    A|-4-4-4-44-2---------------------22-3-4-44-44-44-2----|
    E|------------4-4-4-44-3-2-22-3-4----------------------|
    
    VERSO
    
    
    G|-----------------------------------------------------|
    D|-----------------------------------------------------|
    A|-4-4-4-44-2---------------------22-3-4-44-44-44-2----|
    E|------------4-4-4-44-3-2-22-3-4----------------------|
    
    BRIDGE
    
    
    G|---------------------------------------------------------|
    D|---------------------------------------------------------|
    A|--5----------------4---------------2------2-0-------0----|
    E|----------------------------------------------2-2-4---4--|
        No miro mas...
    
    
    G|--------------------------6-----8-----9-----11-----------|
    D|----4----6----7----9-------------------------------------|
    A|----------------------4-----6-----7-----9------------
  • +
    ¡Colabora con nosotros!
    Envíanos tu versión de esta canción

Letra de Graffiti
Esta es una rola de un grupo nuevo con temas bastante intersantes
y pues vi que esta estaba bastante solicitada y siendo que es
MUY BUENA rola y no est atan dificil me puse a sacarla
usen cejilla en (A) pero en (E) no jeje para que se escuche mejor!
bueno ahi les va, sin dedicación jaja
Si hay infierno para mi
y hay infierno para vos
que nada nos separe por favor
Todo el tiempo que perdí
no lo voy a repetir
no quiero ser igual a lo que fui
(un rasgueo)
No miro mas televisión
No hay nada para ver
(normal)
Salgo a pasear por la ciudad
Y en un disparo una canción
Se hace graffiti en mi
Dadada dira da da
Dadada dira da da
Un graffiti en mi interior
Me dice que mañana es hoy
Dadada dira da da
Dadada dira da da
Me siento mucho mejor
Sabiendo que mañana es hoy
Otra vez
Si hay un cielo para mi
y hay un cielo para vos
que nada nos separe por favor
Todo el tiempo que perdi
no lo voy a repetir
no quiero ser igual a lo que fui
NO miro más televisión
no hay nada para ver
salgo a pasear por la ciudad
y en un disparo una canción
se hace graffiti en mi
Dadada dira da da
Dadada dira da da
Un graffiti en mi interior
Me dice que mañana es hoy
Dadada dira da da
Dadada dira da da
Me siento mucho mejor
Sabiendo que mañana es hoy
Dadada dira da da
Dadada dira da da
Un graffiti en mi interior
Me dice que mañana es hoy
Dadada dira da da
Dadada dira da da
Me siento mucho mejor
Sabiendo que mañana es hoy
Otra vez




[Graffiti chords][Graffiti cifra]
© LaCuerda.net · aviso legal · privacidad · es · en · pt · contacto