Acordes de Guitarra » H »Hillsong United » Levántate (Tab)

Levántate
Hillsong United

Letras, Notas, Punteos, Tablaturas y Acordes de Guitarra (Tabs & Chords)

  • Tablatura
    Esta es Rise de London.
    Aparece como Levántate porque Lacuerda lo tradujo así
    
    Intro:
    G-9-9-9-11-11------------
    D-------------11-11-11-11
    A------------------------x2
    
    B---------------------------------------
    G-9-9-9-11-11-14-14--9-9-9-11-11-----11-
    D-------------------------------11-11---
    
    Precoro:
    B---------------------------------------
    G-9s11-11-9-11-11-9---------------------
    D------------------11-11s9-11-9---------
    A------------------------------12-11----
    
    B----------------------------------------
    G-9s11-11-9-11-11-9----------------------
    D------------------11-11s9-11-9-14-14-13-
    A----------------------------------------
    
    Intro-Verso2
    
    Coro: D5 A5 E5 F#5 D5 A5 E5
    
    Verso3
    B--7---7---5---5---
    G-6---6---6---6----
    D------------------
    
    Intro-Precoro-Coro
    
    Verso4 (Rasgueo)
    B-10---10---9---
    G-11---9----9---
    D--------------x2
    
    Precoro
    Coro3:
    E-----------------------------
    B-7-10-9-10-9----7-10-9--7----
    G-------9-----7-9-------------
    D-----------------------------
    
    Instrumental:
    B--------
  • +
    ¡Colabora con nosotros!
    Envíanos tu versión de esta canción



[ver todas las canciones]


© LaCuerda.net · Aviso Legal · Privacidad