Acordes de Guitarra » H »Hillsong United » Dios Eterno (Tab)

Dios Eterno
Hillsong United

  • Letra y Acordes
    G          F                C       G
    Mil veces te falle, Mas tu fuiste fiel
                F             C         G
    Tu gracia me levanto, Me basta tu amor
           Am       F               C    G
    Dios eterno tu luz por siempre brillara
              Am       F      C     G
    Y tu gloria incomparable sin final.
    F C G F C
    
      G       F           C     G
    Señor tu voluntad permanecerá,
                    F         C      G
    En ti me quiero perder en adoración
          Am        F                C    G
    Dios eterno tu luz por siempre brillara
          Am       F          C     G   F
    Y tu gloria incomparable sin final.
    
    Pre Coro
    
  • Tablatura
    saludos A  LA Iglesia Bautista Filipos.
    
    
    
    Esta es la intro:
                      Se toca con estas notas F C G F C
    
    e.--5-8p5-12---8-12-8-10-7-------5-8p5-12--8-12-8-10-7-----
    B.-8----------8------------8----8---------8------------8---
    G.---------------------------------------------------------
    D.---------------------------------------------------------
    A.---------------------------------------------------------
    E.---------------------------------------------------------
    
    
    e.--5-8p5-12---8-12-8-10-7-------5-8p5-12--8-12-8-10-7-----
    B.-8----------8------------8----8---------8------------8---
    G.---------------------------------------------------------
    D.---------------------------------------------------------
    A.---------------------------------------------------------
    
  • +
    ¡Colabora con nosotros!
    Envíanos tu versión de esta canción

Letra de Dios Eterno
Mil veces te falle, Mas tu fuiste fiel
Tu gracia me levanto, Me basta tu amor
Dios eterno tu luz por siempre brillara
Y tu gloria incomparable sin final.
Señor tu voluntad permanecerá,
En ti me quiero perder en adoración
Dios eterno tu luz por siempre brillara
Y tu gloria incomparable sin final.
Pre Coro
De mi Corazón te doy el control
Consume todo mi interior, Dios
Tu justicia y amor me abrazan Señor
Te amo desde mi interior
Verso II
Pre Coro
Dios eterno tu luz por siempre brillara
Y tu gloria incomparable sin final
El clamor mi ser es contigo estar
Desde mi interior mi alma clamara
Pre Coro
Dios eterno tu luz por siempre brillara
Y tu gloria incomparable sin final
El clamor mi ser es contigo estar
Desde mi interior mi alma clamara



© LaCuerda.net · aviso legal · privacidad · contacto