Acordes de Guitarra » H »Hillsong United » Creo en tí (Tab)

Creo en tí
Hillsong United

Letras, Acordes y Tabs para Guitarra, Bajo y Ukulele

  • Em-C-D
    Verso:
     Em    Em    C     D
    Ahora se lo que es mejor
    Em    Em    C     D
    Amarte mas y mas Señor
    Em    Em    C     D
    En ti pongo toda mi fe
    Em    Em    C       Am
    Siempre en Dios confiareee
    Coro:
    G           D
    Creo en Ti Creo en Ti
    Em               D       C
    Creo en Ti ¡El hijo de Dios!
    G      D          Am7
    Me has dado la vida
    B     C        D
    Nadie puede salvar
    G
    
  • Intro:Em-D-C
    Verso:
     Em         D       C  D Em
    Ahora se lo que es mejor
    Em         D       C  D Em
    Amarte mas y mas Señor
    Em         D       C  D Em
    En ti pongo toda mi fe
    Em         D        C
    Siempre en Dios confiareee
    Coro:
    G           D
    Creo en Ti Creo en Ti
    Em               D       C
    Creo en Ti ¡El hijo de Dios!
    G                D
    Me has dado la vida
    Am             C
    Nadie puede salvar
         G(Em cuando va al puente)
    
  •          Em        D
    E:-----x-------x------x-------x-------x--------------:
    A:-----7-------x------x-------x-------x--------------:
    D:-----x-------9------9-------9-------9--------------:
    G:-----7-------7------7-------7-------7--------------:
    B:-----8------10-----10------10------10--------------:
    e:-----x-------x------x-------x-------x--------------:
             C       D
    E:-----x-------x-----x------x-----x-------------------:
    A:-----x-------7-----7------7-----7-------------------:
    D:-----7-------7-----7------7-----7-------------------:
    G:-----5-------x-----x------x-----x-------------------:
    B:-----8------10----10-----10----10-------------------:
    e:-----x-------x-----x------x-----x-------------------:
    
    Verso: x4
    
    | Em | D | C | D |
    
            Em        D
    
  • Intro y verso:
    ---------------------------------------------
    ---------------5-5-5-------------------------
    -7-7-5-5-7-5-7-------3-3-3-3-3-3-5-5-5-5-5-5-
    ---------------------------------------------
    Coro:
    | G | D | Em | D  C|
    | G | D | Am | B  C |
    | C | D | G |
    Instrumental:
    ---------------
    ---------5-7---
    -7-7-5-7-----5- (3x)
    ---------------
    
    -------------7h9-
    -----5-5-7-7-----
    -7-7-------------
    -----------------
    
    
    Puente:
    | G | G | G | G | C | C | C | C |
  • +
    ¡Colabora con nosotros!
    Envíanos tu versión de esta canción

Letra de Creo en tí
Verso:
Ahora se lo que es mejor
Amarte mas y mas Señor
En ti pongo toda mi fe
Siempre en Dios confiareee
Creo en Ti Creo en Ti
Creo en Ti ¡El hijo de Dios!
Me has dado la vida
Nadie puede salvar
Siempre Siempre
Siempre te Alabare
Final:




[Creo en tí chords][Creo en tí cifra]
© LaCuerda.net · aviso legal · privacidad · es · en · pt · contacto