Acordes de Guitarra » H »Hillsong United » Con Todo (Tab)

Con Todo
Hillsong United

Letras, Notas, Punteos, Tablaturas y Acordes de Guitarra (Tabs & Chords)

  • Letra y Acordes
    B F# G#m E
    B F# G#m E
    
    
    Verse 1:
    B
    Dejanos Ver
       F#            G#m
    Lo que entristece tu corazon
       E            B
    La iglesia que deseas tener
       F#      G#m        E
    Refleja tu Luz
    
    
    Verse 2:
    B
    Rompe Señor
       F#       G#m
    Orgullo y muros en mi interior
    
  • Tablatura
        B        F#        G#m        E
    e|--2--|  e|--2--|  e|--4--|  e|--9--|
    B|--4--|  B|--2--|  B|--4--|  B|--9--|
    G|--4--|  G|--3--|  G|--4--|  G|--9--|
    D|--4--|  D|--4--|  D|--6--|  D|--9--|
    A|--2--|  A|--4--|  A|--6--|  A|--7--|
    E|-----|  E|--2--|  E|--4--|  E|-----|
    
    INTRO
    Guitarra I
       B                               F#
    e|------------------------------------------------------------|
    B|-------4---4--------4---4-------4---4-------2---2-----------|
    G|-----4---4--------4---4-------4---4-------3---3-------------|
    D|---4------------4-----------4-----------4-------------------|
    A|-2------------2-----------2---------------------------------|
    E|--------------------------------------2---------------------|
    
      G#m                              E
    e|------------------------------------------------------------|
    
  • Tablatura
          SI              FA#       SOL#m        MI
    E|-------------|------------|-----------|---------------
    B|-------------|------------|----4-4----|----7-7--------
    G|----8-8------|----3-3-----|---4-4-----|---8-8---------
    D|---9-9---x3--|---4-4---x1-|--6------x3|--9------x1----
    A|--9----------|--4---------|-----------|---------------
    E|-7-----------|-2----------|-4---------|-0-------------
    
    
     este es el punteo de fondo que camvia junto con el arpegio
    no puse cuantas veces se repite por que son demaciadas xD
    
    
          SI              FA#       SOL#m        MI
    E|-----7-------|------6------|----11----|-----12--11----------
    B|-------------|-------------|----------|---------------------
    G|-------------|-------------|----------|---------------------
    D|-------------|-------------|----------|---------------------
    A|-------------|-------------|----------|---------------------
    E|-------------|-------------|----------|---------------------
    
  • +
    ¡Colabora con nosotros!
    Envíanos tu versión de esta canción
  • Tutorial
    Tutorial de Guitarra - Con Todo - Más Como Jesús
    15:30

Letra de Con Todo
Verse 1:
Dejanos Ver
Lo que entristece tu corazon
La iglesia que deseas tener
Refleja tu Luz
Verse 2:
Rompe Señor
Orgullo y muros en mi interior
Mis sueños y coronas te doy
Me rindo a tus pies
Pre-Chorus:
Tu luz da
Esperanza en la oscuridad
Que todos puedan ver
Cristo Mi Dios
Grande y digno de alabar
Verse 3:
Eterno Dios
Glorioso en todo eres Señor
La majestad, la gracia y poder
En la luz de tu ser
Interlude:
Chorus:
Con todo Dios
Con todo Dios
Cantare de Tu Gloria
Con todo Dios
Con todo Dios
Mi alabanza dare
Bridge:
Mi Corazón
Te adora Dios
Por siempre te exaltare
A ti mi Rey
Con todo Dios
Mi alabanza dare



© LaCuerda.net · Aviso Legal · Privacidad
DINAMICO