Acordes de Guitarra » H »Hermética » Si se calla el cantor (Tab)

Si se calla el cantor
Hermética

  • Tablatura
    SI SE CALLA EL CANTOR.
    
    e|---------------------------------|
    B|---------------------------------|
    G|---------------------------------| riff 1
    D|---------------------------------| 
    A|-7--7--7--7--8--7--7--7--7-------|
    E|-5--5--5--5--6--5--5--5--5-------|
    
    Si se calla el cantor, 
    
    e|---------------------------------------------------------|
    B|---------------------------------------------------------|
    G|---------------------------------------------------------|
    D|--9--9--10-9--7--9--9--10-9--7--9--9--9--9---------------| riff 2 
    A|--7--7--8--7--5--7--7--8--7--5--7--7--7--7---7--7--7--7--|
    E|---------------------------------------------5--5--5--5--|
    
    calla la vida porque la vida misma es como un canto.
    
    
    si se calla el cantor, / riff 1 
    muere el espanto, la esperanza, la luz y la alegría. / riff 2
    
    
    e|-----------------------------------------------|
    B|-----------------------------------------------|
    G|-----------------------------------------------| riff 3
    D|--
  • +
    ¡Colabora con nosotros!
    Envíanos tu versión de esta canción





© LaCuerda.net · aviso legal · privacidad · contacto