Acordes de Guitarra » H »Ha.ash » Que hago con mis labios (Tab)

Que hago con mis labios
Ha.ash

  • Letra y Acordes
    Em7/9  C9-F#  Em7/9/G  D9/F#
    
    e║-12----10----------------12--7--10--12--5--3--2--3-
    B║----10----12--7--8-------12--8--10--12--7--5--3--3-
    G║--------------------7------------------------------
    D║---------------------------------------------------
    A║---------------------------------------------------
    E║---------------------------------------------------
    
    
    Em7/9              C9-F#
    Entraste como un rayo de luz
    Em7/9/G          D9/F#
    Como un aire encantador
    Em7/9              C9-F#
    Liberaste con tu hechizo
    Em7/9/G         D9/F#
    A mi recluso corazón
    
    Em7/9
    
  • Letra y Acordes
    Em                C
    Entraste como un rayo de luz
    G               D
    Como un aire encantador
    Em               C
    Liberaste con tu hechizo
    G             D
    A MI recluso corazón
    
    Em
    Tu dulzura corrió por mis venas
    C
    Creí en tu intención
     G
    No pensé que fuese un engaño
     D
    Ni una mentira tu amor
    
    Em
    Me dices que te esta llamando
    
  • Tablatura
    e--12---10-------------12--10-12---------------
    B----12---12-------------12------10------------
    G------------11-12------------------11-11/12---
    D-----------------12----------------------12---
    A----------------------------------------------
    E----------------------------------------------
    
    2da guiatarra
              Em                 C              G
    e----------0-----------------0--------------0---------------0--------
    B--------0---0-------------1---1----------3---3-----------3---3------
    G------0-------0---------0-------2------0-------0-------2-------2----
    D----2-----------------2--------------0---------------0--------------
    A--------------------3-----------------------------------------------
    E--0--------------------------------3---------------2----------------
    
    
    
    Entraste como un rayo de luz, Como un aire encantador
    e---------------------------------------------------------
    
  • +
    ¡Colabora con nosotros!
    Envíanos tu versión de esta canción

Letra de Que hago con mis labios
Entraste como un rayo de luz
Como un aire encantador
Liberaste con tu hechizo
A mi recluso corazón
Tu dulzura corrió por mis venas
Creí en tu intención
No pensé que fuese un engaño
D9/F#
Ni una mentira tu amor
Me dices que te esta llamando
Te vas sin un adiós
Se muy bien que harás en sus brazos
D9/F#
Dime que hago yo
Que hago con mis labios
Si me ruegan tus besos
Que hago con mis manos
D9/F#
Cuando suplican tu regreso
Que hago con mis noches
Que hago con mis días
Que hago con tu esencia
D9/F#
Que se aferra a la mía
Dime que hago yo
Hablamos solo cuando puedes
Te abrazo al esconder
Que no haría para tenerte
D9/F#
A mi lado al amanecer
Mis amigos dicen que te olvide
Que antes de ti no era igual
Antes de ti mi vida no tenía sentido
D9/F#
Antes de ti no sabia amar
Que hago yo



© LaCuerda.net · aviso legal · privacidad · contacto