Acordes de Guitarra » G »Gustavo Cerati » Karaoke (Tab)

Karaoke
Gustavo Cerati

Letras, Acordes y Tabs para Guitarra, Bajo y Ukulele

  •   C#  D#  F#  A#m  Fm  F#?  G#
    1-4---6---2---1----8---2------4
    2-6---8---2---2----9---2------4
    3-6---8---3---3----10--3------5
    4-6---8---4---3----10--5------6
    5-4---6---4---1----8---4------6
    6-x---x---2---x--------2------4
    
    Intro: C#, D# (hartas veces)
    Verso:
    
    F#         A#m
      Ya no me necesitas
    F#         A#m
      Es lo mejor
    F#     A#m                
      Eras alguien a 
          Fm
    quien yo solía conocer
    F#        A#m 
    
  • Intro: C D o C Dsus4
    
    Fmaj7        Am7
      Ya no me necesitas
    Fmaj7      Am7
      Es lo mejor
    Fmaj7     Am7
      Eras alguien a
          Em
    Quien yo solía conocer
    Fmaj7      Am7
      Fue muy simple
    Fmaj7    Am7
      Despegar
    Fmaj7           Am7
      Solo un corto tiempo
            Em
    y te buscaste un nuevo corazón
    Fmaj7          Fmaj7(cambia bajo)
      Ahora tienes, tu propio show
    
  • F#
                   en otras estrofas
    1-------------/-------------------/
    2-------------/----2---2----------/
    3----1----1---/--3---3------------/
    4--4----4-----/-------------------/
    5-------------/-------------------/
    6-------------/-------------------/
    
     Ya no me necesitas...
    
    A#m
                   en otras estrofas
    1-------------/------------------/
    2-------------/----2-----2-------/
    3----1---1----/--3-----3---------/
    4--3---3------/------3-----------/
    5-------------/------------------/
    6-------------/------------------/
    
    
  • +
    ¡Colabora con nosotros!
    Envíanos tu versión de esta canción
  • Tutorial
    Karaoke (acordes)
    - Gustavo Cerati.
    4:00

Letra de Karaoke
Verso:
Ya no me necesitas
Es lo mejor
Eras alguien a
quien yo solía conocer
Fue muy simple
despegar
y te buscaste un nuevo corazón
Ahora tienes, tu propio show
como un rey vengador, vengador
(verso)
No te alcanza
con improvisar
el descaro baby
es parte de la diversion
Ahora vamos, A ver tu show
en el cuarto de un hotel (frente al mar)
Lee mis labios, Karaoke
como un rey convenceme, convenceme.




[Karaoke chords][Karaoke cifra]
© LaCuerda.net · aviso legal · privacidad · es · en · pt · contacto