Acordes de Guitarra » G »Guaraná » Echame a mi la culpa (Tab)

Echame a mi la culpa
Guaraná

Letras, Notas, Punteos, Tablaturas y Acordes de Guitarra (Tabs & Chords)

  • Letra y Acordes
    INTRO: A - A
    
    A
    Sabes mejor que nadie
               A
    Que me fallaste,
    A
    Que lo que prometiste
              E
    Se te olvidó
    
    Bm
    Sabes a ciencia cierta
                E
    Que me engañaste
    E
    Aunque nadie te amaba
              A
    Igual que yo.
    
    
  • Tablatura
    E-------3---3-----3-----3--------
    B-----5---3---3-----3-5---3------
    G---------------5----------------   4 veces
    D--------------------------------
    A--------------------------------
    E--------------------------------
    
    
    Riff 2
    E-----8-8---8-----8-----8--------
    B---------8---8-6---6-8---8------
    G--------------------------------   2 veces
    D--------------------------------
    A--------------------------------
    E--------------------------------
    
    Fin Intro
    
    
    Riff 2
    
  • +
    ¡Colabora con nosotros!
    Envíanos tu versión de esta canción

Letra de Echame a mi la culpa
Sabes mejor que nadie
Que me fallaste,
Que lo que prometiste
Se te olvidó
Sabes a ciencia cierta
Que me engañaste
Aunque nadie te amaba
Igual que yo.
Lleno estoy de razones
Pa' despreciarte
Y sin embargo quiero
Que seas feliz.
Y allá en el otro mundo
En vez de infierno
Encuentres gloria,
Y que una nube de tu memoria
Me borre a mí. [X2]
Dile al que te pregunte
Que no te quise,
Dile que te engañaba,
Que fui lo peor.
Échame a mí la culpa
De lo que pase,
Cúbrete tú la espalda
Con mi dolor.
Y allá en el otro mundo
En vez de infierno
Encuentres gloria,
Y que una nube de tu memoria
Me borre a mí. [X4]
Bueno chicos y chicas de la red...
Cualquier comentario, escribeme a mi correo
y hablamos



© LaCuerda.net · Aviso Legal · Privacidad