Acordes de Guitarra » G »Grupo Red » Amor Adolescente (Tab)

Amor Adolescente
Grupo Red

Letras, Acordes y Tabs para Guitarra, Bajo y Ukulele

  • B. ---5---5-------7-5---5--------7-5-4-------4-5-4---5-7-----|
    G. -4----------------------------------6---6-----------------|
    D. ----------------------------------------------------------|
    A. ----------------------------------------------------------|
    E. ----------------------------------------------------------|
    
    
    e. ---4-7-4-----7-5-4-7-4------7-5-4-----------4-----4-5-4---|
    B. -5-5-9-5-----9-7-5-9-5------9-7-5-7-5---5-7-5-7---5-7-5---|
    G. -4--------------------------------6-4---4-6---6-----------|
    D. ----------------------------------------------------------|
    A. ----------------------------------------------------------|
    E. ----------------------------------------------------------|
    
        MI          DO#m      LA                  SI
      Sabes que de niño yo decía que algún día me casaria con vos
       MI          DO#m             LA                     SI
      Tú eres desde niña el sol, iluminas mi camino y me llenas de pasíon
    
       DO#m      SOL#m     DO#m     SOL#m   LA   SI
    
  • +
    ¡Colabora con nosotros!
    Envíanos tu versión de esta canción

Letra de Amor Adolescente
Sabes que de niño yo decía que algún día me casaria con vos
Tú eres desde niña el sol, iluminas mi camino y me llenas de pasíon
Pero me duele no tenerte a mi lado amor...
Tú y yo somos dos adolescentes que se aman,
tú y yo juramos amarnos por siempre.
Tú y yo nos amamos...
Y ahi se repite lo mismo
Un saludo pal grupo ojala que siga bien y pa mi sobrina
que la quiero mucho
SN BK
CHAO




[Amor Adolescente chords][Amor Adolescente cifra]
© LaCuerda.net · aviso legal · privacidad · es · en · pt · contacto